PrimaNota.ru - самый крупный в мире бесплатный архив песенных текстов, аккордов, табулатур и нот


Misc Unsigned Bands - One Dead Dream - Mondays Break - бас-таба

Регистрация Запомнить меня
Войти через:  Facebook Google Twitter Vk Yandex Mail.ru

Misc Unsigned Bands - One Dead Dream - Mondays Break - бас-таба

Печатать
Просмотров: 41
Mondays Break
One dead dream
Tuning: drop B

Guitars play then bass comes in:
-------------------------------------------------|
-------------------------------------------------|
------------------21~----------------------21~---|
--5202~----5202~--------**-5202~----5202~------**|

--------------------------------------------|
--------------------------------------------|
-------------------------222111-------------|    x2
--222222222-5202-2222222 -------**----------|

-------------------------------------------------------|x3|----------------------------|
-------------------------------------------------------|x3|----------------------------|
------------21~----------------21~---------------21~---|x3|----------------------------|      x2
0020-020-032------0020-020-032------0020-020-032-------|x3|---55555555-8888888---------|


------------------------------|
------------------------------|
---------------------------21-| x3
----000000----000000-02-032---|

-------------------------------------------------------|x3|----------------------------|
-------------------------------------------------------|x3|----------------------------|
------------21~----------------21~---------------21~---|x3|----------------------------|      x2
0020-020-032------0020-020-032------0020-020-032-------|x3|---55555555-8888888---------|

------------------------------|
------------------------------|
---------------------------21-| x3
----000000----000000-02-032---|
Добавлено: 05.09.2013
Другие материалы по этой песне:
  • Аккорды и текст

Страница создана 05.09.2013
http://primanota.ru/misc-unsigned-bands/one-dead-dream-mondays-break-chords.htm
Привет, Гость.
Предлагаем пройти революционный курс по гитаре.
Подарок от PrimaNota.Ru, забирай!