PrimaNota.ru - самый крупный в мире бесплатный архив песенных текстов, аккордов, табулатур и нот


Misc Unsigned Bands - Pat Coronel - What Gods Been Telling Me - таба

Регистрация Запомнить меня
Войти через:  Facebook Google Twitter Vk Yandex Mail.ru

Misc Unsigned Bands - Pat Coronel - What Gods Been Telling Me - таба

Печатать
Просмотров: 33
Capo 8

Chords [relative to capo]: Caad9 G Em7 D [muted e string]

THIS PROBABLY HAS ERRORS, so tell any corrections and just fix it as you play.
Figure out the timing with the song, I tried a little to make it easier to read and time.

Tabs are not relative to capo, e.g. 8 = open string

INTRO
e|----------------------------------------------------------------------------------------------|
B|---------11-11h13--11--------11-----------------------11-11h13--11----------------------------|
G|-10-h12--------------12--------12p10-8-8h10----10-h12--------------12----13p12-10-8-8h10-8h10-|
D|----------------------------------------------------------------------------------------------|
A|----------------------------------------------------------------------------------------------|
E|----------------------------------------------------------------------------------------------|


...then be different.
e|------------------------------------------------------------------------------|
B|--------11-11h13--11-----------11-------------------------11-11h13--11-13-----|
G|-10-h12--------------12--10h12----10-8--8-10-10----10-h12-----------------12--|
D|------------------------------------------------------------------------------|
A|------------------------------------------------------------------------------|
E|------------------------------------------------------------------------------|

e|---------------------------------------------|
B|-------11-----------------11-----------------|
G|-10h12----10-8----8-10-12----10----10p8-10p8-|
D|---------------10----------------------------|
A|---------------------------------------------|
E|---------------------------------------------|


...them to pray for you.
e|---------------------------11-------------------------------------------10-----------|
B|--------11-11h13--11---------------11--------------------------11-11h13----13-11-----|
G|-10-h12--------------12-------10-8----10-8------8-10----10-h12-------------------12--|
D|-------------------------------------------8-10--------------------------------------|
A|-------------------------------------------------------------------------------------|
E|-------------------------------------------------------------------------------------|

e|--------------------------------------------------|
B|-----------------------11-------------------------|
G|-13p12----------8-8h12----10-8----8-8h10---8-10-8-|
D|------h15p13-------------------10-----------------|
A|------------h15-----------------------------------|
E|--------------------------------------------------|


...fellow CFC Youth.
e|----------------------------------------------------------------------------|
B|--------11-11h13--11--------------11---------------------11-11h13-11-13-----|
G|-10-h12--------------12-----10h12----10-8-8h10----10-h12----------------12--|
D|----------------------------------------------------------------------------|
A|----------------------------------------------------------------------------|
E|----------------------------------------------------------------------------|

e|--------------11-13-b13-b13-b13-b13[or 14]-b13-13p11----------------|
B|-------11-13------------------------------------------13-b13--11-11-|
G|-10h12--------------------------------------------------------------|
D|--------------------------------------------------------------------|
A|--------------------------------------------------------------------|
E|--------------------------------------------------------------------|

e|------------------11-------------------------------------------------|
B|----11-13-b13-11-----11-13-13/15-13-11------8-11---------------------|
G|-12------------------------------------10-8-------------------8------|
D|------------------------------------------------------8-10-12---10-8-|
A|-------------------------------------------------8-10----------------|
E|---------------------------------------------------------------------|
Добавлено: 17.11.2013
Другие материалы по этой песне:
  • Аккорды и текст

Страница создана 17.11.2013
http://primanota.ru/misc-unsigned-bands/pat-coronel-what-gods-been-telling-me-chords.htm
Привет, Гость.
Предлагаем пройти революционный курс по гитаре.
Подарок от PrimaNota.Ru, забирай!