PrimaNota.ru - самый крупный в мире бесплатный архив песенных текстов, аккордов, табулатур и нот


Misc Unsigned Bands - Michael Stabekis - Let Go Let Live - таба

Регистрация Запомнить меня
Войти через:  Facebook Google Twitter Vk Yandex Mail.ru

Misc Unsigned Bands - Michael Stabekis - Let Go Let Live - таба

Печатать
Просмотров: 41
-------------------------------------------------------------------------------
                             Let Go; Let Live - Michael Stabekis
-------------------------------------------------------------------------------
Tabbed by: Michael Stabekis
E-mail: michael.stabekis@gmail.com

**This is written more for memory than for others to learn, since they wouldn't know the song.

Tuning: Whole Step Down ( DGCFAD )


**Strum Patterns Not Included For Most Of The Song

[CHORUS]:

d|-x--x--x--x--x--0--0-|-----------------------------------------------------|
A|-8--10-12-10-8--3--1-|-----------------------------------------------------|
F|-7--x--0--x--7--0--0-|--(x2)-----------------------------------------------|
C|-5--7--9--7--5--4--2-|-----------------------------------------------------|
G|-7--9--10-9--7--5--3-|-----------------------------------------------------|
D|-x--x--x--x--x--0--0-|-----------------------------------------------------|

[VERSE 1]:

d|-3--2--0--2-|-x-----------------|-3--2--0--x-------------------------------|
A|-3--0--0--3-|-x-(Repeat while---|-3--0--8--7-------------------------------|
F|-0--4--0--2-|-x--band is paused)|-0--4--9--7-------------------------------|
C|-0--0--2--0-|-x-----------------|-0--0--9--7-------------------------------|
G|-2--2--2--0-|-x-----------------|-2--2--7--5-------------------------------|
D|-3--x--0--2-|-x-----------------|-3--x--0--x-------------------------------|

[PRE-CHORUS]:

d|---------------------------------------------------------------------------|
A|---------------------------------------------------------------------------|
F|---------------------------------------------------------------------------|
C|-5~----7~----9-9-9-9-9-----------------------------------------------------|
G|-x-----x-----x-x-x-x-x-----------------------------------------------------|
D|-3~----5~----7-7-7-7-7-----------------------------------------------------|

[CHORUS]:

d|-x--x--x--x--x--0--0-|-----------------------------------------------------|
A|-8--10-12-10-8--3--1-|-----------------------------------------------------|
F|-7--x--0--x--7--0--0-|--(x2)-----------------------------------------------|
C|-5--7--9--7--5--4--2-|-----------------------------------------------------|
G|-7--9--10-9--7--5--3-|-----------------------------------------------------|
D|-x--x--x--x--x--0--0-|-----------------------------------------------------|

[VERSE 2]:

d|-3~-2~-0~-2~-|-3~-2~-0~-0~-------------------------------------------------|
A|-3~-0~-0~-3~-|-3~-0~-8~-7~-------------------------------------------------|
F|-0~-4~-0~-2~-|-0~-4~-9~-7~-------------------------------------------------|
C|-0~-0~-2~-0~-|-0~-0~-9~-7~-------------------------------------------------|
G|-2~-2~-2~-0~-|-2~-2~-7~-5~-------------------------------------------------|
D|-3~-x--0~-2~-|-3~-x--0~-x--------------------------------------------------|

[CHORUS]:

d|-x--x--x--x--x--0--0-|-----------------------------------------------------|
A|-8--10-12-10-8--3--1-|-----------------------------------------------------|
F|-7--x--0--x--7--0--0-|--(x2)-----------------------------------------------|
C|-5--7--9--7--5--4--2-|-----------------------------------------------------|
G|-7--9--10-9--7--5--3-|-----------------------------------------------------|
D|-x--x--x--x--x--0--0-|-----------------------------------------------------|

[BRIDGE/OUTRO]:

d|-0~----0----x-----0~----0----x---------------------------------------------|
A|-1~----1----0~----1~----1----0~--------------------------------------------|
F|-0~----0----0~----0~----0----0~--------------------------------------------|
C|-2~----2----0~----2~----2----0~--------------------------------------------|
G|-3~----3/5--2~----3~----3/5--2~--------------------------------------------|
D|-x-----x----x-----x-----x----x---------------------------------------------|

d|-0-0-0-0-0-0-0---x-x-x-x-x-x-x-x-|-----------------------------------------|
A|-1-1-1-1-1-1-1---0-0-0-0-0-0-0-0-|-----------------------------------------|
F|-0-0-0-0-0-0-0---0-0-0-0-0-0-0-0-|--(x3)-----------------------------------|
C|-2-2-2-2-2-2-2/5-0-0-0-0-0-0-0-0-|-----------------------------------------|
G|-3-3-3-3-3-3-3---2-2-2-2-2-2-2-2-|-----------------------------------------|
D|-x-x-x-x-x-x-x---x-x-x-x-x-x-x-x-|-----------------------------------------|

d|-0-0-0-0-0-0-0-0-x---------------------------------------------------------|
A|-1-1-1-1-1-1-1/3-3~--------------------------------------------------------|
F|-0-0-0-0-0-0-0-0-0~--------------------------------------------------------|
C|-2-2-2-2-2-2-2/4-0~--------------------------------------------------------|
G|-3-3-3-3-3-3-3/5-2~--------------------------------------------------------|
D|-x-x-x-x-x-x-x---3~--------------------------------------------------------|

************************************

| /   slide up
| \   slide down
| h   hammer-on
| p   pull-off
| ~   vibrato
| +   harmonic
| x   Mute note
| b   Bend
| pb  Pre-bend
| br  Bend release
| pbr Pre-bend release
| brb Bend release bend

************************************
Добавлено: 03.12.2013
Другие материалы по этой песне:
  • Аккорды и текст

Страница создана 03.12.2013
http://primanota.ru/misc-unsigned-bands/michael-stabekis-let-go-let-live-chords.htm
Привет, Гость.
Предлагаем пройти революционный курс по гитаре.
Подарок от PrimaNota.Ru, забирай!