PrimaNota.ru - самый крупный в мире бесплатный архив песенных текстов, аккордов, табулатур и нот


Misc Unsigned Bands - Millennia - Surrender - таба

Регистрация Запомнить меня
Войти через:  Facebook Google Twitter Vk Yandex Mail.ru

Misc Unsigned Bands - Millennia - Surrender - таба

Печатать
Просмотров: 42
surrender.txt

D  :--------------------|--------------------------|--------------------|
A  :--------------------|----------9-10-9----------|--------------------|
F  :----------9-------6-|-----------------9--------|----------9-------6-|
C  :----------7-------7-|-------------------7-9-7-6|7---------7-------7-|
G  :--0-0-0-0-5-0-0-0-5-|--0-0-0-0-----------------|--0-0-0-0-5-0-0-0-5-|
C  :4-0-0*0*0---0-0-0*--|--0-0-0*0*----------------|--0-0*0*0---0-0-0---|

D  :--------------------|--------------------------|--------------------|
A  :--------------------|----------9-10-9----------|--------------------|
F  :----------9-------6-|-----------------9--------|----------9-------6-|
C  :----------7-------7-|-------------------7-9-7-6|7---------7-------7-|
G  :--0-0-0-0-5-0-0-0-5-|--0-0-0-0-----------------|--0-0-0-0-5-0-0-0-5-|
C  :4-0-0*0*0---0-0-0*--|--0-0-0*0*----------------|--0-0*0*0---0-0-0---|

============================================================================

D  :--------------------|--------------------|--------------------------|
A  :--------------------|--------------------|----------9-10-9----------|
F  :--------------------|----------9-------6-|-----------------9--------|
C  :--------------------|----------7-------7-|-------------------7-9-7-6|
G  :--0-0-0-0-----------|--0-0-0-0-5-0-0-0-5-|--0-0-0-0-----------------|
C  :--0-0-0-0-2-0-2-0-2-|4-0-0*0*0---0-0-0---|--0-0-0-0-----------------|

D  :--------------------|--------------------|--------------------------|
A  :--------------------|--------------------|----------9-10-9----------|
F  :--------------------|----------9-------6-|-----------------9--------|
C  :--------------------|----------7-------7-|-------------------7-9-7-6|
G  :--0-0-0-0-----------|--0-0-0-0-5-0-0-0-5-|--0-0-0-0-----------------|
C  :--0-0-0-0-2-0-2-0-2-|4-0-0*0*0---0-0-0---|--0-0-0-0-----------------|

============================================================================

D  :--------------------|--------------------|--------------------|
A  :--------------------|--------------------|--------------------|
F  :----------9-------6-|--------------------|----------9-------6-|
C  :7---------7-------7-|--------------------|----------7-------7-|
G  :--0-0-0-0-5-0-0-0-5-|--0-0-0-0-----------|--0-0-0-0-5-0-0-0-5-|
C  :--0-0*0*0---0-0-0---|--0-0-0-0-2-0-2-0-2-|4-0-0*0*0---0-0-0*--|

D  :--------------------|--------------------|--------------------|
A  :--------------------|--------------------|--------------------|
F  :----------9-------6-|--------------------|----------9-------6-|
C  :7---------7-------7-|--------------------|----------7-------7-|
G  :--0-0-0-0-5-0-0-0-5-|--0-0-0-0-----------|--0-0-0-0-5-0-0-0-5-|
C  :--0-0*0*0---0-0-0---|--0-0-0-0-2-0-2-0-2-|4-0-0*0*0---0-0-0*--|

============================================================================

D  :--------------------------|--------------------|--------------------|
A  :----------9-10-9----------|--------------------|--------------------|
F  :-----------------9--------|----------9-------6-|--------------------|
C  :-------------------7-9-7-6|7---------7-------7-|--------------------|
G  :--0-0-0-0-----------------|--0-0-0-0-5-0-0-0-5-|--0-0-0-0-----------|
C  :--0-0-0*0*----------------|--0-0*0*0---0-0-0---|--0-0-0-0-2-0-2-0-2-|

D  :--------------------------|--------------------|--------------------|
A  :----------9-10-9----------|--------------------|--------------------|
F  :-----------------9--------|----------9-------6-|--------------------|
C  :-------------------7-9-7-6|7---------7-------7-|--------------------|
G  :--0-0-0-0-----------------|--0-0-0-0-5-0-0-0-5-|--0-0-0-0-----------|
C  :--0-0-0*0*----------------|--0-0*0*0---0-0-0---|--0-0-0-0-2-0-2-0-2-|

============================================================================

D  :--------------------|--------------------------|--------------------|
A  :--------------------|----------9-10-9----------|--------------------|
F  :----------9-------6-|-----------------9--------|----------9-------6-|
C  :----------7-------7-|-------------------7-9-7-6|7---------7-------7-|
G  :--0-0-0-0-5-0-0-0-5-|--0-0-0-0-----------------|--0-0-0-0-5-0-0-0-5-|
C  :4-0-0*0*0---0-0-0---|--0-0-0-0-----------------|--0-0*0*0---0-0-0---|

D  :--------------------|--------------------------|--------------------|
A  :--------------------|--------------------------|--------------------|
F  :----------9-------6-|--------------------------|----------9-------6-|
C  :----------7-------7-|-------------------7-9-7-6|7---------7-------7-|
G  :--0-0-0-0-5-0-0-0-5-|--0-0-0-0-----------------|--0-0-0-0-5-0-0-0-5-|
C  :4-0-0*0*0---0-0-0---|--0-0-0-0-*---------------|--0-0*0*0---0-0-0---|

============================================================================

D  :--------------------|--------------------|---------------------|
A  :--------------------|--------------------|---------------------|
F  :--------------------|--------------------|9---------6----------|
C  :--------------------|7-------------------|--------------6-7-6--|
G  :--0-0-0-0-----------|--------------------|--------------------7|
C  :--0-0-0-0-2-0-2-0-2-|--0-0-0-0-0-0-0-0-0-|--4-4-4-4---2--------|

D  :--------------------|--------------------|---------------------|
A  :--------------------|--------------------|---------------------|
F  :--------------------|--------------------|9---------6----------|
C  :--------------------|7-------------------|--------------6-7-6--|
G  :--0-0-0-0-----------|--------------------|--------------------7|
C  :--0-0-0-0-2-0-2-0-2-|--0-0-0-0-0-0-0-0-0-|--4-4-4-4---2--------|

============================================================================

D  :--------------------|---------------------|--------------------|
A  :--------------------|---------------------|--------------------|
F  :--------------------|9---------6-----9----|--------------------|
C  :7-------------------|--------------7---7-6|7-------------------|
G  :--------------------|---------------------|--------------------|
C  :--0-0-0-0-0-0-0-0-0-|--4-4-4-4---2--------|--0-0-0-0-0-0-0-0-0-|

D  :--------------------|---------------------|--------------------|
A  :--------------------|---------------------|--------------------|
F  :--------------------|9---------6-----9----|--------------------|
C  :7-------------------|--------------7---7-6|7-------------------|
G  :--------------------|---------------------|--------------------|
C  :--0-0-0-0-0-0-0-0-0-|--4-4-4-4---2--------|--0-0-0-0-0-0-0-0-0-|

============================================================================

D  :---------------------|--------------------|---------------------|
A  :---------------------|--------------------|---------------------|
F  :9---------6----------|--------------------|9---------6-----9----|
C  :--------------6-7-6--|7-------------------|--------------7---7-6|
G  :--------------------7|--------------------|---------------------|
C  :--4-4-4-4---2--------|--0-0-0-0-0-0-0-0-0-|--7-7-7-7---2--------|

D  :---------------------|--------------------|---------------------|
A  :---------------------|--------------------|---------------------|
F  :9---------6----------|--------------------|9---------6-----9----|
C  :--------------6-7-6--|7-------------------|--------------7---7-6|
G  :--------------------7|--------------------|---------------------|
C  :--4-4-4-4---2--------|--0-0-0-0-0-0-0-0-0-|--7-7-7-7---2--------|

============================================================================

D  :--------------------|---------------------|--------------------|
A  :--------------------|---------------------|--------------------|
F  :--------------------|9---------6----------|--------------------|
C  :7-------------------|--------------6-7-6--|7-------------------|
G  :--------------------|--------------------7|--------------------|
C  :--0-0-0-0-0-0-0-0-0-|--4-4-4-4---2--------|--0-0-0-0-0-0-0-0-0-|

D  :--------------------|---------------------|--------------------|
A  :--------------------|---------------------|--------------------|
F  :--------------------|9---------6----------|--------------------|
C  :7-------------------|--------------6-7-6--|7-------------------|
G  :--------------------|--------------------7|--------------------|
C  :--0-0-0-0-0-0-0-0-0-|--4-4-4-4---2--------|--0-0-0-0-0-0-0-0-0-|

============================================================================

D  :---------------------|------------------|----------------|
A  :---------------------|------------------|----------------|
F  :9---------6-----9----|----------9--6--6-|6---------------|
C  :--------------7---7-6|----------7--7--7-|7---------------|
G  :---------------------|0--0--0---5--4--4-|4-------4-4-4-4-|
C  :--7-7-7-7---2--------|0--0--0---0--4--4-|4-------4-4-4-4-|

D  :---------------------|------------------|----------------|
A  :---------------------|------------------|----------------|
F  :9---------6-----9----|----------9--6--6-|6---------------|
C  :--------------7---7-6|----------7--7--7-|7---------------|
G  :---------------------|0--0--0-0-5--4--4-|4-------4-4-4-4-|
C  :--7-7-7-7---2--------|0--0--0-0-0--4--4-|4-------4-4-4-4-|

============================================================================

D  :----------------|--------------------|----------------|----------------|
A  :----------------|--------------------|----------------|----------------|
F  :--------9--6--6-|6-------6--6-4-4-4-4|--------9--6--6-|6---------------|
C  :--------7--7--7-|7-------2--2-2-2-2-2|--------7--7--7-|7---------------|
G  :0--0--0-5--4--4-|4-------2--2-2-2-2-2|0--0--0-5--4--4-|4---------------|
C  :0--0--0-0--4--4-|4-------2--2-2-2-2-2|0--0--0-0--4--4-|4---------------|

D  :----------------|--------------------|----------------|----------------|
A  :----------------|--------------------|----------------|----------------|
F  :--------9--6--6-|6-------6--6-4-4-4-4|--------9--6--6-|6---------------|
C  :--------7--7--7-|7-------2--2-2-2-2-2|--------7--7--7-|7---------------|
G  :0--0--0-5--4--4-|4-------2--2-2-2-2-2|0--0--0-5--4--4-|4---------------|
C  :0--0--0-0--4--4-|4-------2--2-2-2-2-2|0--0--0-0--4--4-|4---------------|

============================================================================

D  :----------------|----------------|------------------------|
A  :----------------|----------------|------------------------|
F  :--------9--6--6-|6---------------|------------------------|
C  :--------7--7--7-|7-6-6-6-6-6-6-6-|----------7-----------9-|
G  :0--0--0-5--4--4-|4-2-2-2-2-2-2-2-|5-----------4-----------|
C  :0--0--0-0--4--4-|4-2-2-2-2-2-2-2-|--4-4-4-4-----2-2-2-2---|

D  :----------------|----------------|------------------------|
A  :----------------|----------------|------------------------|
F  :--------9--6--6-|6---------------|------------------------|
C  :--------7--7--7-|7-6-6-6-6-6-6-6-|----------7-----------9-|
G  :0--0--0-5--4--4-|4-2-2-2-2-2-2-2-|5-----------4-----------|
C  :0--0--0-0--4--4-|4-2-2-2-2-2-2-2-|--4-4-4-4-----2-2-2-2---|

============================================================================

D  :--------------------|--------------------------|
A  :------------------9-|10-----9------------------|
F  :------------6-------|-----------9-------6------|
C  :--------------7-6---|--------------------------|
G  :5---------9---------|--------------------------|
C  :--0-0-0-0-----------|--------------------------|

D  :--------------------|--------------------------|
A  :------------------9-|--------------------------|
F  :------------6-------|--------------------------|
C  :--------------7-6---|--------------------------|
G  :5---------9---------|-4-4-4---4-4-4-4-4-4-4-4-4|
C  :--0-0-0-0-----------|-4-4-4-*-4*4-4-4-4-4-4-4-4|

============================================================================

D  :--------------------------|----------------------|
A  :--------------------------|----------------------|
F  :6-----------7-6-6---------|------9--------9------|
C  :------------------7-------|----7--------7--------|
G  :--------------------------|5-9------5-9----------|
C  :--------------------------|----------------------|

D  :--------------------------|----------------------|
A  :--------------------------|----------------------|
F  :--------------------------|------9--------9------|
C  :--------------------------|----7--------7--------|
G  :0-0-0-0-0-0-----0---0--0-0|5-9------5-9----------|
C  :0-0-0-0-0-0-*---0---0--0-0|----------------------|

============================================================================

D  :--------------------------|--------------------------|
A  :--------------------------|------------------9-10-9--|
F  :------9----6-7-6----------|------9--------9---------9|
C  :----7------------7-6-7-6--|----7--------7------------|
G  :5-9----------------------7|5-9------5-9--------------|
C  :--------------------------|--------------------------|

D  :--------------------------|--------------------------|
A  :--------------------------|------------------9-10-9--|
F  :------9----6-7-6----------|------9--------9---------9|
C  :----7------------7-6-7-6--|----7--------7------------|
G  :5-9----------------------7|5-9------5-9--------------|
C  :--------------------------|--------------------------|

============================================================================

D  :-------------------------|------------------|------------------------|
A  :----------9--------------|------------------|------------------------|
F  :6---------6---------6----|----9-------9-9-9-|------------------------|
C  :7---------7---------7----|----7-------7-7-7-|----------7-----------9-|
G  :9---------5---------5----|----5-------5-5-5-|5-----------4-----------|
C  :--0-0-0-0---0-0-0-0---0-0|0-0---------------|--4-4-4-4-----2-2-2-2---|

D  :-------------------------|------------------|------------------------|
A  :----------9--------------|------------------|------------------------|
F  :6---------6---------6----|----9-------9-9-9-|------------------------|
C  :7---------7---------7----|----7-------7-7-7-|----------7-----------9-|
G  :9---------5---------5----|----5-------5-5-5-|5-----------4-----------|
C  :--0-0-0-0---0-0-0-0---0-0|0-0---------------|--4-4-4-4-----2-2-2-2---|

============================================================================

D  :--------------------|--------------------------|
A  :------------------9-|10-----9------------------|
F  :------------6-------|-----------9-------6------|
C  :--------------7-6---|--------------------------|
G  :5---------9---------|--------------------------|
C  :--0-0-0-0-----------|--------------------------|

D  :--------------------|--------------------------|
A  :------------------9-|--------------------------|
F  :------------6-------|--------------------------|
C  :--------------7-6---|--------------------------|
G  :5---------9---------|-4-4-4---4-4-4-4-4-4-4-4-4|
C  :--0-0-0-0-----------|-4-4-4---4-4-4-4-4-4-4-4-4|

============================================================================

D  :--------------------------|----------------------|
A  :--------------------------|----------------------|
F  :6-----------7-6-6---------|------9--------9------|
C  :------------------7-------|----7--------7--------|
G  :--------------------------|5-9------5-9----------|
C  :--------------------------|-------*--------*-----|

D  :--------------------------|----------------------|
A  :--------------------------|----------------------|
F  :--------------------------|------9--------9------|
C  :--------------------------|----7--------7--------|
G  :0-0-0-0-0-0-----0---0--0-0|5-9------5-9----------|
C  :0-0-0-0-0-0-*---0---0--0-0|-------*--------*-----|

============================================================================

D  :--------------------------|--------------------------|
A  :--------------------------|------------------9-10-9--|
F  :------9----6-7-6----------|------9--------9---------9|
C  :----7------------7-6-7-6--|----7--------7------------|
G  :5-9----------------------7|5-9------5-9--------------|
C  :--------------------------|--------------------------|

D  :--------------------------|--------------------------|
A  :--------------------------|------------------9-10-9--|
F  :------9----6-7-6----------|------9--------9---------9|
C  :----7------------7-6-7-6--|----7--------7------------|
G  :5-9----------------------7|5-9------5-9--------------|
C  :--------------------------|--------------------------|

============================================================================

D  :-------------------------|------------------|----------------|
A  :----------9--------------|------------------|------------9---|
F  :6---------6---------6----|----9-------9-9-9-|------------9---|
C  :7---------7---------7----|----7-------7-7-7-|7-----7-7-7-7---|
G  :9---------5---------5----|----5-------5-5-5-|4-----4-4-4-7---|
C  :--0-0-0-0---0-0-0-0---0-0|0-0---------------|4-----4-4-4-----|

D  :-------------------------|------------------|----------------|
A  :----------9--------------|------------------|------------9---|
F  :6---------6---------6----|----9-------9-9-9-|------------9---|
C  :7---------7---------7----|----7-------7-7-7-|7-----7-7-7-7---|
G  :9---------5---------5----|----5-------5-5-5-|4-----4-4-4-7---|
C  :--0-0-0-0---0-0-0-0---0-0|0-0---------------|4-----4-4-4-----|

============================================================================

D  :----------------|------------------|----------------|----------------|
A  :--9-9-9-9-9-9-9-|--------------2---|--2-2-2-2-2-2-2-|------------9---|
F  :--9-9-9-9-9-9-9-|--------------2---|--2-2-2-2-2-2-2-|------------9---|
C  :--7-7-7-7-7-7-7-|0-----0-0-0-0-0---|--0-0-0-0-0-0-0-|7-----7-7-7-7---|
G  :--7-7-7-7-7-7-7-|0-----0-0-0-0-0---|--0-0-0-0-0-0-0-|4-----4-4-4-7---|
C  :----------------|0-----0-0-0-0-----|----------------|4-----4-4-4-----|

D  :----------------|------------------|----------------|----------------|
A  :--9-9-9-9-9-9-9-|--------------2---|--2-2-2-2-2-2-2-|------------9---|
F  :--9-9-9-9-9-9-9-|--------------2---|--2-2-2-2-2-2-2-|------------9---|
C  :--7-7-7-7-7-7-7-|0-----0-0-0-0-0---|--0-0-0-0-0-0-0-|7-----7-7-7-7---|
G  :--7-7-7-7-7-7-7-|0-----0-0-0-0-0---|--0-0-0-0-0-0-0-|4-----4-4-4-7---|
C  :----------------|0-----0-0-0-0-----|----------------|4-----4-4-4-----|

============================================================================

D  :----------------|------------------|----------------|----------------|
A  :--9-9-9-9-9-9-9-|--------------2---|--2-2-2-2-2-2-2-|------------9---|
F  :--9-9-9-9-9-9-9-|--------------2---|--2-2-2-2-2-2-2-|------------9---|
C  :--7-7-7-7-7-7-7-|0-----0-0-0-0-0---|--0-0-0-0-0-0-0-|7-----7-7-7-7---|
G  :--7-7-7-7-7-7-7-|0-----0-0-0-0-0---|--0-0-0-0-0-0-0-|4-----4-4-4-7---|
C  :----------------|0-----0-0-0-0-0---|----------------|4-----4-4-4-----|

D  :----------------|------------------|----------------|----------------|
A  :--9-9-9-9-9-9-9-|--------------2---|--2-2-2-2-2-2-2-|------------9---|
F  :--9-9-9-9-9-9-9-|--------------2---|--2-2-2-2-2-2-2-|------------9---|
C  :--7-7-7-7-7-7-7-|0-----0-0-0-0-0---|--0-0-0-0-0-0-0-|7-----7-7-7-7---|
G  :--7-7-7-7-7-7-7-|0-----0-0-0-0-0---|--0-0-0-0-0-0-0-|4-----4-4-4-7---|
C  :----------------|0-----0-0-0-0-----|----------------|4-----4-4-4-----|

============================================================================

D  :----------------|------------------|----------------|----------------|
A  :--9-9-9-9-9-9-9-|--------------2---|--2-2-2-2-2-2-2-|------------9---|
F  :--9-9-9-9-9-9-9-|--------------2---|--2-2-2-2-2-2-2-|------------9---|
C  :--7-7-7-7-7-7-7-|0-----0-0-0-0-0---|--0-0-0-0-0-0-0-|7-----7-7-7-7---|
G  :--7-7-7-7-7-7-7-|0-----0-0-0-0-0---|--0-0-0-0-0-0-0-|4-----4-4-4-7---|
C  :----------------|0-----0-0-0-0-----|----------------|4-----4-4-4-----|

D  :----------------|------------------|----------------|----------------|
A  :--9-9-9-9-9-9-9-|--------------2---|--2-2-2-2-2-2-2-|------------9---|
F  :--9-9-9-9-9-9-9-|--------------2---|--2-2-2-2-2-2-2-|------------9---|
C  :--7-7-7-7-7-7-7-|0-----0-0-0-0-0---|--0-0-0-0-0-0-0-|7-----7-7-7-7---|
G  :--7-7-7-7-7-7-7-|0-----0-0-0-0-0---|--0-0-0-0-0-0-0-|4-----4-4-4-7---|
C  :----------------|0-----0-0-0-0-----|----------------|4-----4-4-4-----|

============================================================================

D  :----------------|------------------|----------------|
A  :--9-9-9-9-9-9-9-|--------------2---|--2-2-2-2-2-2-2-|
F  :--9-9-9-9-9-9-9-|--------------2---|--2-2-2-2-2-2-2-|
C  :--7-7-7-7-7-7-7-|0-----0-0-0-0-0---|--0-0-0-0-0-0-0-|
G  :--7-7-7-7-7-7-7-|0-----0-0-0-0-0---|--0-0-0-0-0-0-0-|
C  :----------------|0-----0-0-0-0-0---|----------------|

D  :----------------|------------------|----------------|
A  :--9-9-9-9-9-9-9-|--------------2---|--2-2-2-2-2-2-2-|
F  :--9-9-9-9-9-9-9-|--------------2---|--2-2-2-2-2-2-2-|
C  :--7-7-7-7-7-7-7-|0-----0-0-0-0-0---|--0-0-0-0-0-0-0-|
G  :--7-7-7-7-7-7-7-|0-----0-0-0-0-0---|--0-0-0-0-0-0-0-|
C  :----------------|0-----0-0-0-0-0---|----------------|

============================================================================

D  :--------------------|-----------------------|--------------------|
A  :--------------------|-----------------------|--------------------|
F  :--------------------|-----------------------|--------------------|
C  :------------------6-|-----------------------|------------------6-|
G  :-------4-7-0--------|--------0-4-4-7-0------|-------4-7-0--------|
C  :4-4-4*-------0--*---|--0-0-0-----------6-0-2|4-4-4*-------0--*---|

D  :--------------------|----------0------------|--------------------|
A  :---------------9----|--------0-----0--------|---------------9----|
F  :------------------9-|-----------------------|------------------9-|
C  :-------6------------|7-------------------7--|-------6------------|
G  :-----------7--------|-----------------------|-----------7--------|
C  :4---4---------------|-----------------------|4---4---------------|

============================================================================

D  :------------------|--------------------|-----------------------|
A  :------------------|--------------------|-----------------------|
F  :------------------|--------------------|-----------------------|
C  :----------7-7-6-6-|------------------6-|-----------------------|
G  :--0-0-0-0-4-4-2-2-|-------4-7-0--------|--------0-4-4-7-0------|
C  :--0-0-0-0-4-4-2-2-|4-4-4*-------0--*---|--0-0-0-----------6-0-2|

D  :------------------|--------------------|----------0------------|
A  :------------------|---------------9----|--------0-----0--------|
F  :----------7-7-6-6-|------------------9-|-----------------------|
C  :7-----------------|-------6------------|7-------------------7--|
G  :------------------|-----------7--------|-----------------------|
C  :------------------|4---4---------------|-----------------------|

============================================================================

D  :--------------------|------------------|-----------------------|
A  :--------------------|------------------|-----------------------|
F  :--------------------|------------------|-----------------------|
C  :------------------6-|----------7-7-6-6-|-----------------------|
G  :-------4-7-0--------|--0-0-0-0-4-4-2-2-|0-0-0-0-0-0--0--0--0---|
C  :4-4-4*-------0--*---|--0-0-0-0-4-4-2-2-|0-0-0-0-0-0--0--0--0---|

D  :--------------------|------------------|-----------------------|
A  :---------------9----|------------------|--------9---10---------|
F  :------------------9-|----------7-7-6-6-|----6------------------|
C  :-------6------------|7-----------------|--7--------------------|
G  :-----------7--------|------------------|9----------------------|
C  :4---4---------------|------------------|-----------------------|

============================================================================

D  :---------------------|-------------------------|--------------------|
A  :---------------------|-------------------------|--------------------|
F  :---------------------|-------------------------|--------------------|
C  :---------------------|-------------------------|--------------------|
G  :0--0-----0-0-0-0-0-0-|4---4-4-4-4--4---4-4-4-4-|2--2----2-2-2-7-7-7-|
C  :0--0-----0-0-0-0-0-0-|4---4-4-4-4--4---4-4-4-4-|2--2----2-2-2-7-7-7-|

D  :---------------------|-------------------------|--------------------|
A  :--------14-----------|--------9---10-----------|9-------------------|
F  :---------------------|----6--------------------|---9--6-------6-----|
C  :---------------------|--7----------------------|------------9-----7-|
G  :---------------------|9------------------------|--------------------|
C  :---------------------|-------------------------|--------------------|

============================================================================

D  :-----------------------|---------------------|-------------------------|
A  :-----------------------|---------------------|-------------------------|
F  :-----------------------|---------------------|-------------------------|
C  :-----------------------|---------------------|-------------------------|
G  :----0-0-0-0--0--0--0---|0--0-----0-0-0-0-0-0-|4---4-4-4-4--4---4-4-4-4-|
C  :0---0-0-0-0--0--0--0---|0--0-----0-0-0-0-0-0-|4---4-4-4-4--4---4-4-4-4-|

D  :-----------------------|---------------------|-------------------------|
A  :--------9---10---------|--------14-----------|--------9---10-----------|
F  :----6------------------|---------------------|----6--------------------|
C  :--7--------------------|---------------------|--7----------------------|
G  :9----------------------|---------------------|9------------------------|
C  :-----------------------|---------------------|-------------------------|

============================================================================

D  :----------------------|------------------------|----------------------|
A  :----------------------|------------------------|----------------------|
F  :----------------------|------------------------|----------------------|
C  :----------------------|------------------------|----------------------|
G  :2--2----2-2--2--7-7-7-|0-0-0-0-0-0--0---0-0---0|0-0-0-----0-0-0-0-0-0-|
C  :2--2----2-2--2--7-7-7-|0-0-0-0-0-0--0*--0-0*--0|0-0-0-----0-0-0-0-0-0-|

D  :--------9---12--------|------------------------|----------------------|
A  :9--------------10---9-|--------9---10----------|---------14-----------|
F  :---9--6---------------|----6-------------------|----------------------|
C  :----------------------|--7---------------------|----------------------|
G  :----------------------|9-----------------------|----------------------|
C  :----------------------|------------------------|----------------------|

============================================================================

D  :-------------------------|--------------------|-----------------------|
A  :-------------------------|--------------------|-----------------------|
F  :-------------------------|--------------------|-----------------------|
C  :-------------------------|--------------------|-----------------------|
G  :4---4-4-4-4--4---4-4-4-4-|2--2----2-2-2-7-7-7-|----0-0-0-0--0--0--0---|
C  :4---4-4-4-4--4---4-4-4-4-|2--2----2-2-2-7-7-7-|0---0-0-0-0--0--0--0---|

D  :-------------------------|--------------------|-----------------------|
A  :--------9---10-----------|9-------------------|--------9---10---------|
F  :----6--------------------|---9--6-------6-----|----6------------------|
C  :--7----------------------|------------9-----7-|--7--------------------|
G  :9------------------------|--------------------|9----------------------|
C  :-------------------------|--------------------|-----------------------|

============================================================================

D  :---------------------|-------------------------|----------------------|
A  :---------------------|-------------------------|----------------------|
F  :---------------------|-------------------------|----------------------|
C  :---------------------|-------------------------|----------------------|
G  :0--0-----0-0-0-0-0-0-|4---4-4-4-4--4---4-4-4-4-|2--2----2-2--2--7-7-7-|
C  :0--0-----0-0-0-0-0-0-|4---4-4-4-4--4---4-4-4-4-|2--2----2-2--2--7-7-7-|

D  :---------------------|-------------------------|--------9---12--------|
A  :--------14-----------|--------9---10-----------|9--------------10---9-|
F  :---------------------|----6--------------------|---9--6---------------|
C  :---------------------|--7----------------------|----------------------|
G  :---------------------|9------------------------|----------------------|
C  :---------------------|-------------------------|----------------------|

============================================================================

D  :----------------|----------------|----------------|
A  :----------------|----------------|----------------|
F  :----------------|----------------|----------------|
C  :4-4-4-4-4-4-4-4-|4-4-4-4-6-6-6-6-|7-7-7-7-7-7-7-7-|
G  :0-0-0-0-0-0-0-0-|0-0-0-0-2-2-2-2-|4-4-4-4-4-4-4-4-|
C  :0-0-0-0-0-0-0-0-|0-0-0-0-2-2-2-2-|4-4-4-4-4-4-4-4-|

D  :----------------|----------------|----------------|
A  :----------------|----------------|----------------|
F  :----------------|----------------|----------------|
C  :4-4-4-4-4-4-4-4-|4-4-4-4-6-6-6-6-|7-7-7-7-7-7-7-7-|
G  :0-0-0-0-0-0-0-0-|0-0-0-0-2-2-2-2-|4-4-4-4-4-4-4-4-|
C  :0-0-0-0-0-0-0-0-|0-0-0-0-2-2-2-2-|4-4-4-4-4-4-4-4-|

============================================================================

D  :------------------------|----------------|----------------|
A  :------------------------|----------------|----------------|
F  :------------------------|----------------|----------------|
C  :11-11-11-11-11-11-11-11-|4-4-4-4-4-4-4-4-|4-4-4-4-6-6-6-6-|
G  :-7--7--7--7--7--7--7--7-|0-0-0-0-0-0-0-0-|0-0-0-0-2-2-2-2-|
C  :-7--7--7--7--7--7--7--7-|0-0-0-0-0-0-0-0-|0-0-0-0-2-2-2-2-|

D  :------------------------|----------------|----------------|
A  :------------------------|----------------|----------------|
F  :------------------------|----------------|----------------|
C  :11-11-11-11-11-11-11-11-|4-4-4-4-4-4-4-4-|4-4-4-4-6-6-6-6-|
G  :-7--7--7--7--7--7--7--7-|0-0-0-0-0-0-0-0-|0-0-0-0-2-2-2-2-|
C  :-7--7--7--7--7--7--7--7-|0-0-0-0-0-0-0-0-|0-0-0-0-2-2-2-2-|

============================================================================

D  :----------------|----------------|----------------|----------------|
A  :----------------|----------------|----------------|----------------|
F  :----------------|----------------|----------------|--------6-6-6-6-|
C  :2-2-2-2-2-2-2-2-|2-2-2-2-2-2-2-2-|4-4-4-4-4-4-4-4-|4-4-4-4-2-2-2-2-|
G  :0-0-0-0-0-0-0-0-|0-0-0-0-0-0-0-0-|0-0-0-0-0-0-0-0-|0-0-0-0-2-2-2-2-|
C  :0-0-0-0-0-0-0-0-|0-0-0-0-0-0-0-0-|0-0-0-0-0-0-0-0-|0-0-0-0-2-2-2-2-|

D  :----------------|----------------|----------------|----------------|
A  :----------------|----------------|----------------|----------------|
F  :----------------|----------------|----------------|--------6-6-6-6-|
C  :2-2-2-2-2-2-2-2-|2-2-2-2-2-2-2-2-|4-4-4-4-4-4-4-4-|4-4-4-4-2-2-2-2-|
G  :0-0-0-0-0-0-0-0-|0-0-0-0-0-0-0-0-|0-0-0-0-0-0-0-0-|0-0-0-0-2-2-2-2-|
C  :0-0-0-0-0-0-0-0-|0-0-0-0-0-0-0-0-|0-0-0-0-0-0-0-0-|0-0-0-0-2-2-2-2-|

============================================================================

D  :----------------|----------------|-----------------------|
A  :----------------|9-----9-9---9---|--------------2--------|
F  :----------------|9-----9-9---9---|--------------2--------|
C  :7-7-7-7-7-7-7-7-|7-----7-7---7---|--------------0--------|
G  :4-4-4-4-4-4-4-4-|7-7-7-7-7-7-7-7-|--0-0-0-0-0-0-0-0-0----|
C  :4-4-4-4-4-4-4-4-|--7-7-----7---7-|--0-0-0-0-0-0---0-0----|

D  :----------------|----------------|-----------------------|
A  :----------------|9-----9-9---9---|--------------2--------|
F  :----------------|9-----9-9---9---|--------------2--------|
C  :7-7-7-7-7-7-7-7-|7-----7-7---7---|--------------0--------|
G  :4-4-4-4-4-4-4-4-|7-7-7-7-7-7-7-7-|--0-0-0-0-0-0-0-0-0----|
C  :4-4-4-4-4-4-4-4-|--7-7-----7---7-|--0-0-0-0-0-0---0-0----|

============================================================================

D  :----------------------|------------------|----------------------|
A  :-----------2-----2----|2-----------------|2----------2-----2----|
F  :-----------2-----2----|2-----------------|2----------2-----2----|
C  :-----------0-----0----|0-----------------|0----------0-----0----|
G  :0-0-0--0-0-0-0-0-0-0-0|0---0-0-0-0-0--0--|0-0-0--0-0-0-0-0-0-0-0|
C  :0-0-0--0-0---0-0---0-0|----0-0-0-0-0--0--|--0-0--0-0---0-0---0-0|

D  :----------------------|------------------|----------------------|
A  :-----------2-----2----|2-----------------|2----------2-----2----|
F  :-----------2-----2----|2-----------------|2----------2-----2----|
C  :-----------0-----0----|0-----------------|0----------0-----0----|
G  :0-0-0--0-0-0-0-0-0-0-0|0---0-0-0-0-0--0--|0-0-0--0-0-0-0-0-0-0-0|
C  :0-0-0--0-0---0-0---0-0|----0-0-0-0-0--0--|--0-0--0-0---0-0---0-0|

============================================================================

D  :-----------------------|---------------------|-------------------------|
A  :-----------------------|---------------------|-------------------------|
F  :-----------------------|---------------------|-------------------------|
C  :-----------------------|---------------------|-------------------------|
G  :0-0-0-0-0-0--0--0--0---|0--0-----0-0-0-0-0-0-|4---4-4-4-4--4---4-4-4-4-|
C  :0-0-0-0-0-0--0--0--0---|0--0-----0-0-0-0-0-0-|4---4-4-4-4--4---4-4-4-4-|

D  :-----------------------|---------------------|-------------------------|
A  :--------9---10---------|--------14-----------|--------9---10-----------|
F  :----6------------------|---------------------|----6--------------------|
C  :--7--------------------|---------------------|--7----------------------|
G  :9----------------------|---------------------|9------------------------|
C  :-----------------------|---------------------|-------------------------|

============================================================================

D  :--------------------|-----------------------|---------------------|
A  :--------------------|-----------------------|---------------------|
F  :--------------------|-----------------------|---------------------|
C  :--------------------|-----------------------|---------------------|
G  :2--2----2-2-2-7-7-7-|----0-0-0-0--0--0--0---|0--0-----0-0-0-0-0-0-|
C  :2--2----2-2-2-7-7-7-|0---0-0-0-0--0--0--0---|0--0-----0-0-0-0-0-0-|

D  :--------------------|-----------------------|---------------------|
A  :9-------------------|--------9---10---------|--------14-----------|
F  :---9--6-------6-----|----6------------------|---------------------|
C  :------------9-----7-|--7--------------------|---------------------|
G  :--------------------|9----------------------|---------------------|
C  :--------------------|-----------------------|---------------------|

============================================================================

D  :-------------------------|----------------------|
A  :-------------------------|----------------------|
F  :-------------------------|----------------------|
C  :-------------------------|----------------------|
G  :4---4-4-4-4--4---4-4-4-4-|2--2----2-2--2--7-7-7-|
C  :4---4-4-4-4--4---4-4-4-4-|2--2----2-2--2--7-7-7-|

D  :-------------------------|--------9---12--------|
A  :--------9---10-----------|9--------------10---9-|
F  :----6--------------------|---9--6---------------|
C  :--7----------------------|----------------------|
G  :9------------------------|----------------------|
C  :-------------------------|----------------------|

============================================================================

D  :------------------------|----------------------|
A  :------------------------|----------------------|
F  :------------------------|----------------------|
C  :------------------------|----------------------|
G  :0-0-0-0-0-0--0---0-0---0|0-0-0-----0-0-0-0-0-0-|
C  :0-0-0-0-0-0--0*--0-0*--0|0-0-0-----0-0-0-0-0-0-|

D  :------------------------|----------------------|
A  :--------9---10----------|---------14-----------|
F  :----6-------------------|----------------------|
C  :--7---------------------|----------------------|
G  :9-----------------------|----------------------|
C  :------------------------|----------------------|

============================================================================

D  :-------------------------|--------------------|-----------------------|
A  :-------------------------|--------------------|-----------------------|
F  :-------------------------|--------------------|-----------------------|
C  :-------------------------|--------------------|-----------------------|
G  :4---4-4-4-4--4---4-4-4-4-|2--2----2-2-2-7-7-7-|----0-0-0-0--0--0--0---|
C  :4---4-4-4-4--4---4-4-4-4-|2--2----2-2-2-7-7-7-|0---0-0-0-0--0--0--0---|

D  :-------------------------|--------------------|-----------------------|
A  :--------9---10-----------|9-------------------|--------9---10---------|
F  :----6--------------------|---9--6-------6-----|----6------------------|
C  :--7----------------------|------------9-----7-|--7--------------------|
G  :9------------------------|--------------------|9----------------------|
C  :-------------------------|--------------------|-----------------------|

============================================================================

D  :---------------------|-------------------------|----------------------|
A  :---------------------|-------------------------|----------------------|
F  :---------------------|-------------------------|----------------------|
C  :---------------------|-------------------------|----------------------|
G  :0--0-----0-0-0-0-0-0-|4---4-4-4-4--4---4-4-4-4-|2--2----2-2--2--7-7-7-|
C  :0--0-----0-0-0-0-0-0-|4---4-4-4-4--4---4-4-4-4-|2--2----2-2--2--7-7-7-|

D  :---------------------|-------------------------|--------9---12--------|
A  :--------14-----------|--------9---10-----------|9--------------10---9-|
F  :---------------------|----6--------------------|---9--6---------------|
C  :---------------------|--7----------------------|----------------------|
G  :---------------------|9------------------------|----------------------|
C  :---------------------|-------------------------|----------------------|
Добавлено: 28.07.2013
Другие материалы по этой песне:
  • Аккорды и текст

Страница создана 28.07.2013
http://primanota.ru/misc-unsigned-bands/millennia-surrender-chords.htm
Привет, Гость.
Предлагаем пройти революционный курс по гитаре.
Подарок от PrimaNota.Ru, забирай!