PrimaNota.ru - самый крупный в мире бесплатный архив песенных текстов, аккордов, табулатур и нот


Misc Unsigned Bands - Merchant Ships - Sleep Patterns - таба

Регистрация Запомнить меня
Войти через:  Facebook Google Twitter Vk Yandex Mail.ru

Misc Unsigned Bands - Merchant Ships - Sleep Patterns - таба

Печатать
Просмотров: 49
Standard Tuning, Capo on 1st fret, ~ = Let ring

Here's the song: http://www.youtube.com/watch?v=rrcpzPpo8_Y

  Intro: As many times as needed
e|--0~----0--0--0~----0--0--0~-----------------------------------------------|
B|--0~----0--0--0~----0--0--0~-----------------------------------------------|
G|--0-----0--0--0~----0--0--0~-----------------------------------------------|
D|--5~----5--9--4~----4--5--2~-----------------------------------------------|
A|--7~----7--10-5~----5--7--3~-----------------------------------------------|
E|--x-----x--x--x-----x--x--x------------------------------------------------|

  Verse 1: As many times as needed
e|---------------------------------------------------------------------------|
B|-----0---0---0---0------0---0---0---0------0---3-0----0---0----------------|
G|----7---7---7---7------0---5---0---7------0----------0---5-----------------|
D|---5---5---5---5------4---4---4---4------2---2------2---2------------------|
A|--7---7---7---7------5---5---5---5------3---3------3---3-------------------|
E|---------------------------------------------------------------------------|

  Verse 2: As many times as needed
e|--0~----0--0--0~----0--0--0~-----------------------------------------------|
B|--0~----0--0--0~----0--0--0~-----------------------------------------------|
G|--0-----0--0--0~----0--0--0~-----------------------------------------------|
D|--5~----5--9--4~----4--5--2~-----------------------------------------------|
A|--7~----7--10-5~----5--7--3~-----------------------------------------------|
E|--x-----x--x--x-----x--x--x------------------------------------------------|

  Outro: Mostly Palm Muted
e|--00000000---00000000---0000000000000000-----------------------------------|
B|--00000000---00000000---0000000000000000-----------------------------------|
G|--00000000---00000000---0000000000000000-----------------------------------|
D|--22222222---44444444---5555555555555555-----------------------------------|
A|--33333333---55555555---7777777777777777-----------------------------------|
E|--********---********---****************-----------------------------------|
 
  Slowly release palm mute towards the end
e|--00000000---00000000---0000000000000000-----------------------------------|
B|--00000000---00000000---0000000000000000-----------------------------------|
G|--00000000---00000000---0000000000000000-----------------------------------|
D|--22222222---44444444---5555555555555555-----------------------------------|
A|--33333333---55555555---7777777777777777-----------------------------------|
E|--********---********---********-------------------------------------------|


************************************

| /   slide up
| \   slide down
| h   hammer-on
| p   pull-off
| +   harmonic
| x   Mute note
| b   Bend
| pb  Pre-bend
| br  Bend release
| pbr Pre-bend release
| brb Bend release bend
| *   Palm Mute
Добавлено: 04.09.2013
Другие материалы по этой песне:
  • Аккорды и текст

Страница создана 04.09.2013
http://primanota.ru/misc-unsigned-bands/merchant-ships-sleep-patterns-chords.htm
Привет, Гость.
Предлагаем пройти революционный курс по гитаре.
Подарок от PrimaNota.Ru, забирай!