PrimaNota.ru - самый крупный в мире бесплатный архив песенных текстов, аккордов, табулатур и нот


Misc Unsigned Bands - Light - аккорды и текст, видео

Регистрация Запомнить меня
Войти через:  Facebook Google Twitter Vk Yandex Mail.ru

Misc Unsigned Bands - Light - аккорды и текст, видео

Печатать
Просмотров: 115
Уроки эстрадного вокала в Санкт-Петербурге
Light
Misc Unsigned Bands
--------------------------------------------------------
Song:Light - Artist:Zac Martin
--------------------------------------------------------

Tabbed by: Zac Martin
E-mail: zacmartin10@hotmail.com

Any suggestions please comment or email me on how to
make this better, this is an original song by me so 
have fun and add your own twist to it!

Tuning: Standard


(Bass throughout song)
e|-------------------------------------------------|
B|-------------------------------------------------|
G|-------------------------------------------------|
D|-------------------------------------------------|
A|-------------------------------------------------|
E|-12--12-10-8--8--10--10-8-6--5-------------------|
   Q   E  E  Q  Q  Q   E  E Q  Q

(Intro)
(All eight notes)
e|-------------------------------------------------|
B|----0-------0-------1--------3-------------------|
G|---0-0-0---0-0-0---0-0-0----2-2-2----------------|
D|--0---0---2---2---2---2----0---0-----------------|
A|-----------------3--------0----------------------|
E|-3-------0---------------------------------------|
   G       Em      C       D

(Verse)
G         D    Em             C
Love is a lie, Hope will soon die
G          D    Em             C
So here we lie, While we still cry

(Interlude)
G D Em C (4 strums each)

(Verse)
G           D    Em             C
We will not fly, High up in the sky.
G          D    Em         C
But we can try, Try not to die

(Interlude)
G D Em C (x4 progressively getting faster)

(Verse)
G          D      Em            C
We have to fight, Fight for our right
G           D      Em           C
To keep our light, We can shine bright
G               D      Em             C
Show them whose right, Show them your fright

(Interlude)
G D Em C

(Bridge)
G D Em C (x4 two strums each)
* * *  *
G Em D C
G D Em C
G Em D C

(Verse)
G           D      Em           C
We have our pride, Overcome our fear
G           D     Em            C
Now we will ride, Far away from here

(Outro)
G D Em C (finish with a slow strum G)


{Lengend}
*-Staccato
H-Half note
Q-Quarter not
E-Eigth note
Добавлено: 27.08.2015
Другие материалы по этой песне:
  • Аккорды и текст

Страница создана 27.08.2015
http://primanota.ru/misc-unsigned-bands/light-chords.htm
Привет, Гость.
Предлагаем пройти революционный курс по гитаре.
Подарок от PrimaNota.Ru, забирай!