PrimaNota.ru - самый крупный в мире бесплатный архив песенных текстов, аккордов, табулатур и нот


Misc Unsigned Bands - Ogiso Setsuna - White (album) - аккорды и текст

Регистрация Запомнить меня
Войти через:  Facebook Google Twitter Vk Yandex Mail.ru

Misc Unsigned Bands - Ogiso Setsuna - White (album) - аккорды и текст

Печатать
Просмотров: 99
Ogiso Setsuna - White (album)
Misc Unsigned Bands
-------------------------------------------------------------------------------
                             White Album - Ogiso Setsuna
-------------------------------------------------------------------------------
Tabbed by:Hank-Beedz
E-mail:prinkey@live.com

Tuning:Standard
Its a fairly simple song, once you get the chords. You'll need to be able to play barre chords.
I would listen to the song to get the timing, but otherwise, enjoy and have fun

Melody is as follows(it's basically the C minor Aeolian Scale, also shown):

e|-------------8------------------|-----------------------------------8-9-11-|
B|---------------9--8-8-11-9------|-----------------------------8-9-11-------|
G|--------------------------------|------------------------8-10--------------|
D|--------8-11--------------------|----------------8-10-11-------------------|
A|--10-11-------------------------|--------8-10-11---------------------------|
E|--------------------------------|-8-9-11-----------------------------------|

Chords:
    C#7M       Cm      Fm        D#      FmII

e|----4---------3-------1--------6---------8---------------------------------|
B|----6---------4-------1--------8---------9---------------------------------|
G|----5---------5-------1--------8---------10--------------------------------|
D|----6---------5-------2--------8---------10--------------------------------|
A|----4---------3-------2--------6---------8---------------------------------|
E|----4---------x-------1--------x---------x---------------------------------|


 C#7M    Cm    Cm  Fm Fm
Surechigau mainichi ga 
 C#7M    Cm  Cm  Fm Fm
fueteyuku keredo 
 C#7M    Cm    Cm  Fm Fm
Otagai no kimochi wa itsumo 
 C#7M    Cm    Cm  Fm Fm
soba ni iru yo 

 C#7M   Cm   D# Fm
Futari aenakute mo 
 C#7M   Cm   D# Fm
heiki da nante 
 C#7M   Cm   D# Fm
Tsuyogari iu kedo 
 Fm      Cm Cm C#7M   C#7M  
tameiki majiri ne 

     C#7M        Cm   Fm
  Sugite yuku kisetsu ni 
     C#7M        Cm   Fm
  oitekita takaramono 
     C#7M        Cm   Fm
  Taisetsu na PIISU no 
     C#7M        Cm   Fm  
  kaketa PAZARU da ne 
     C#7M        Cm   Fm
  Shiroi yuki ga machi ni 
       C#7M        Cm   Fm
  yasashiku tsumoru you ni
     C#7M        Cm   Fm 
  ARUBAMU no kuuhaku wo 
     C#7M        Cm   Fm     C#7M        Cm   Fm
  zenbu umeteshimaou 

Furi tsumoru sabishisa ni maketeshimai sou de 
Tada hitori fuan na hibi wo sugoshitete mo 

Daijoubu da yotte Kata wo tataite 
Anata wa egao de genki wo kureru ne 

Tatoe hanareteite mo sono kotoba ga aru kara 
Kokoro kara shiawase to ieru fushigi da ne 
Awai yuki ga watashi no hiso kana omoi komete 
Jyunpaku no ARUBAMU no PEEJI somete kureru 

************************************
Добавлено: 27.08.2015
Другие материалы по этой песне:
  • Аккорды и текст

Страница создана 27.08.2015
http://primanota.ru/misc-unsigned-bands/ogiso-setsuna-white-album-chords.htm
Привет, Гость.
Предлагаем пройти революционный курс по гитаре.
Подарок от PrimaNota.Ru, забирай!