PrimaNota.ru - самый крупный в мире бесплатный архив песенных текстов, аккордов, табулатур и нот


Misc Unsigned Bands - La Vie En Rose - Logan Kendell - таба

Регистрация Запомнить меня
Войти через:  Facebook Google Twitter Vk Yandex Mail.ru

Misc Unsigned Bands - La Vie En Rose - Logan Kendell - таба

Печатать
Просмотров: 48
Logan Kendell - La Vie En Rose (Louis Armstrong cover)

Capo on 7th fret

|-------------------------------------------------------|
|-------1-----------1-----------1-----------1-----------|
|-----0---0-------0---0-------0---0-------0---0---------|
|---2-------2---2-------2---2-------2---2-------2-------|
|-3-----------3-----------3-----------3-----------------|
|-------------------------------------------------------|

|-------------------------------------------------------|
|-------1-----------1-----------0-----------0-----------|
|-----0---0-------0---0-------0---0-------0---0-------2-|
|---2-------2---2-------2---2-------2---2-------2---2---|
|-3-----------3-----------3-----------3-----------3-----|
|-------------------------------------------------------|

|-------------------------1-----------1-----------1-----|
|-1-----------1---------1---1-------0---0-------3---3---|
|---2-------2---2-----2-------2---0-------0---2-------2-|
|-----2---2-------2-------------------------0-----------|
|-------3-----------0-----------------------------------|
|-------------------------------3-----------------------|

|-------1------------1-----------1-----------1----------|
|-----3---3--------0---0-------0---0-------3---3-------0|
|---2-------2----2-------2---2-------2---2-------2---0--|
|-0------------------------------------0----------------|
|-------------------------------------------------------|
|--------------3-----------3-----------------------3----|

|-1-----------------------------------------------------|
|---0---------1---------1------0------------------------|
|-----0-----0---0-----2-----2---------------------------|
|---------2-------2-0-----------------------------------|
|-------3-----------------------------------------------|
|-------------------------3-----------------------------|


|-------------------------------------------------------|
|-------1-----------1-----------0-----------0-----------|
|-----0---0-------0---0-------0---0-------0---0-------2-|
|---2-------2---2-------2---2-------2---2-------2---2---|
|-3-----------3-----------3-----------3-----------3-----|
|-------------------------------------------------------|

|-------------------------------1-----------------1-----|
|-1-----------1-----------1-------1---1---------1---1---|
|---2-------2---2-------2---2-------2---2-----2-------2-|
|-----2---2-------2---3-------3-----------3-3-----------|
|-------3-----------------------------------------------|
|-------------------1-----------------------1-----------|

|-------1------------0-----------0----------------------|
|-----1---1------------1-------1---1-------1-4-1-------1|
|---1-------1-----0------0---0-------0---2-------2---2--|
|-3-------------2----------2-----------1-----------1----|
|-------------3-----------------------------------------|
|-------------------------------------------------------|

|-------------1-----------1-----------------------------|
|-4-1-------1---1-------0---0---------1-----------1-----|
|-----2---2-------2---0-------0-----0---0-------0---0---|
|-------0-------------------------2-------2---2-------2-|
|-------------------------------3-----------3-----------|
|-------------------3-----------------------------------|

|--------------------------------1-----------1----------|
|-------0-----------0----------1---1-------0---0--------|
|-----0---0-------0---0------2-------2---0-------0------|
|---2-------2---2-------2--0----------------------------|
|-3-----------3-----------------------------------------|
|--------------------------------------3----------------|

|-----------------1-------------------------------------|
|-------1---------------0-------------------------------|
|-----0---0-----2-----2---------------------------------|
|---2-------2-0-----------------------------------------|
|-3-----------------------------------------------------|
|-------------------3-----------------------------------|

|---------------------------------------------------------|
|--------------5------------1--------------------3--------|
|-5-4-2------5-4--2-------4-2----------4-2/n(0)--2--5-4--2|
|-5-----5-2----5----5-2-----2--5-2---------------3--------|
|-----------------------3-----------2h3-------------------|
|---------------------------------------------------------|

|---------------------------------------------------------|
|-----0-----------------------------------1--0------------|
|---5-2--1/2-------2-2--2-------4-2--5/0--0-----2-----4/5-|
|-3---3------5-3-----3----5---------------2----2--5-2-----|
|----------------5----------4-5---------------------------|
|---------------------------------------------------------|

|-------------------------------------------------------|
|------------------------------1------------------------|
|-4--2--------4-2--------------2------------------------|
|------5--2--------5-2-----0/3--------------------------|
|-----------3----------2h3------------------------------|
|-------------------------------------------------------|

|-------1-----------1------------0-----------0----------|
|-----1---1-------1---1------------1-------1---1--------|
|---2-------2---1-------1-----0------0---0-------0------|
|-3-----------3-------------2----------2----------------|
|-------------------------3-----------------------------|
|-------------------------------------------------------|

|------------------------------1-----------1------------|
|----1-4-1-------1-4-1-------1---1-------0---0----------|
|--2-------2---2-------2---2-------2---0-------0--------|
|-1----------1-----------0------------------------------|
|-------------------------------------------------------|
|------------------------------------3------------------|

|-------------------------------------------------------|
|-------1-----------1-----------0-----------0-----------|
|-----0---0-------0---0-------0---0-------0---0---------|
|---2-------2---2-------2---2-------2---2-------2-------|
|-3-----------3-----------3-----------3-----------------|
|-------------------------------------------------------|

|--------1-----------1--------------------0-------------|
|------1---1-------0---0---------1--------1-------------|
|----2-------2---0-------0-----0---0----0---------------|
|--0-------------------------2--------2-----------------|
|--------------------------3----------------------------|
|--------------3----------------------------------------|
Добавлено: 11.07.2013
Другие материалы по этой песне:
  • Аккорды и текст

Страница создана 11.07.2013
http://primanota.ru/misc-unsigned-bands/la-vie-en-rose-logan-kendell-chords.htm
Привет, Гость.
Предлагаем пройти революционный курс по гитаре.
Подарок от PrimaNota.Ru, забирай!