PrimaNota.ru - самый крупный в мире бесплатный архив песенных текстов, аккордов, табулатур и нот


Misc Unsigned Bands - Laurena - Permafrost - таба

Регистрация Запомнить меня
Войти через:  Facebook Google Twitter Vk Yandex Mail.ru

Misc Unsigned Bands - Laurena - Permafrost - таба

Печатать
Просмотров: 45
Уроки эстрадного вокала в Санкт-Петербурге
Laurena
Permafrost

Tab created based on instruction of Laurena herself on how to play this song via 
her youtube channel, so you can be assured of its accuracy.

Also she is an unsigned artist, so here's her facebook
http://www.facebook.com/pages/Laurena/160475397352871
and her youtube
http://www.youtube.com/user/lullation13/videos

*Capo on 3rd fret*
(And of course, all fret positionings are relative to the capo.)

Intro
e|--------7--------7---------7---------7---|
B|--------0--------0---------0---------0---|
G|----0--------0---------0---------0-------|
D|--5---5----5---5-----5---5-----5---5-----|
A|-----------------------------------------|
E|-----------------------------------------|

Verse [1] | Sometimes I feel like I'm permafrost
e|--------7--------7---------7---------7---|
B|--------0--------0---------0---------0---|
G|----0--------0---------0---------0-------|
D|--5---5----5---5-----5---5-----5---5-----|
A|-----------------------------------------|
E|-----------------------------------------|(x2)

Alone in the tundra and really lost
e|--------5--------5---------5---------5---|
B|--------0--------0---------0---------0---|
G|----0--------0---------0---------0-------|
D|--4---4----4---4-----4---4-----4---4-----|
A|-----------------------------------------|
E|-----------------------------------------|(x2)

And to think that this is how I feel
e|--------3--------3---------3---------3---|
B|--------0--------0---------0---------0---|
G|----0--------0---------0---------0-------|
D|--2---2----2---2-----2---2-----2---2-----|
A|-----------------------------------------|
E|-----------------------------------------|(x2)

Like the ground is melting and nothing's real
e|--------2--------2---------2---------2---|
B|--------0--------0---------0---------0---|
G|----0--------0---------0---------0-------|
D|--0---0----0---0-----0---0-----0---0-----|
A|-----------------------------------------|
E|-----------------------------------------|(x2)

Verse [2] | Played the same way as verse [1]

And in the taiga everybody knows
That you shouldn't wander where the hemlock grows.
When the land is vast and the wind blow fast
Will you stay with me if the darkness last?

I know I have nothing to give, so may as well give up and live.
e|----------------------------------------|
B|--------1--------1--------1--------1----|
G|--------0--------0--------0--------0----|
D|----2--------2--------2--------2--------|
A|--3---3----3---3----3---3----3---3------|
E|----------------------------------------|(x2)

Verse [3] | Again played the same way as verses 1 and 2.

You say I'm breaking your friends heart
But meanwhile you're tearing mine apart.
So stop asking me if she loves you back
If it's charm you have then it's courage you lack.

Verse [4] | But I want your love and I want it now
e|----------------------------------------|
B|--------1--------1--------1--------1----|
G|--------0--------0--------0--------0----|
D|----2--------2--------2--------2--------|
A|--3---3----3---3----3---3----3---3------|
E|----------------------------------------|(x2)

I'd ask you for it but I don't know how 
e|----------------------------------------|
B|--------3--------3--------3--------3----|
G|--------0--------0--------0--------0----|
D|----0--------0--------0--------0--------|
A|--2---2----2---2----2---2----2---2------|
E|----------------------------------------|(x2)

[Played like the first half of the verse]
I want to hold you tight and I want to now
I'd say I love you but I don't know how.

It's done (x2)
e|----------------------------------------|
B|--------1--------1--------1--------1----|
G|--------0--------0--------0--------0----|
D|----2--------2--------2--------2--------|
A|--3---3----3---3----3---3----3---3------|
E|----------------------------------------|(x2)

Musical interlude
e|------------------------------------------|
B|------------------------------------------|
G|--------0--------0--------0---------------|
D|----0---0----0---0----0---0---------------|
A|-----------------------------0---0---0----|
E|--3---3----3---3----3---3------3---3---3--|

e|------------------------------------------|
B|------------------------------------------|
G|--------0--------0--------0--------0------|
D|--------0--------0--------0--------0------|
A|----2--------2--------2--------2----------|
E|--3---3----3---3----3---3----3---3--------|

Verse [5] | And I remember when we rode the bus
e|---------------------------------------|
B|---------------------------------------|
G|--------0--------0--------0--------0---|
D|----0--------0--------0--------0-------|
A|---------------------------------------|
E|--3---3----3---3----3---3----3---3-----|(x2)

Through the boreal forest and the winter must
e|---------------------------------------|
B|---------------------------------------|
G|--------2--------2--------2--------2---|
D|----0--------0--------0--------0-------|
A|---------------------------------------|
E|--2---2----2---2----2---2----2---2-----|(x2)

I put my head on your shoulder but you moved away
e|---------------------------------------|
B|---------------------------------------|
G|--------0--------0--------0--------0---|
D|----2--------2--------2--------2-------|
A|---------------------------------------|
E|--0---0----0---0----0---0----0---0-----|(x2)

I said I wasn't tired anyway
e|---------------------------------------|
B|---------------------------------------|
G|--------2--------2--------2--------2---|
D|----0--------0--------0--------0-------|
A|---------------------------------------|
E|--2---2----2---2----2---2----2---2-----|(x2)

And I pretended that I didn't care
e|----------------------------------------|
B|--------1--------1--------1--------1----|
G|--------0--------0--------0--------0----|
D|----2--------2--------2--------2--------|
A|--3---3----3---3----3---3----3---3------|
E|----------------------------------------|(x2)

Verse [6] | Played the same way as verse 4

And I pretended that I didn't care
But I hid a few tears behind a lock of hair
And I was tired and I needed sleep
So I swallowed my pride and I changed seat

Again (x2)
e|----------------------------------------|
B|--------1--------1--------1--------1----|
G|--------0--------0--------0--------0----|
D|----2--------2--------2--------2--------|
A|--3---3----3---3----3---3----3---3------|
E|----------------------------------------|(x2)

Musical interlude
e|------------------------------------------|
B|------------------------------------------|
G|--------0--------0--------0---------------|
D|----0---0----0---0----0---0---------------|
A|-----------------------------0---0---0----|
E|--3---3----3---3----3---3------3---3---3--|

e|------------------------------------------|
B|------------------------------------------|
G|--------0--------0--------0--------0------|
D|--------0--------0--------0--------0------|
A|----2--------2--------2--------2----------|
E|--3---3----3---3----3---3----3---3--------|

Verse [7] | Played the same way as verses 6 and 4

So I'd rather you make up your mind
A little faster, you're such a waste of time X2

Verse [8] | And you wanted more but you needed less
'Cause you think that you're better than the rest
e|----------------------------------------|
B|--------1--------1--------1--------1----|
G|--------0--------0--------0--------0----|
D|----2--------2--------0--------0--------|
A|--3---3----3---3----3---3----3---3------|
E|----------------------------------------|(x2)
And I wanted less but I needed more
'Cause you left all I had on the forest floor
e|------------------------------------------|
B|------------------------------------------|
G|--------0--------0--------0---------------|
D|----0---0----0---0----0---0---------------|
A|-----------------------------0---0---0----|
E|--3---3----3---3----3---3------3---3---3--|

e|------------------------------------------|
B|------------------------------------------|
G|--------0--------0--------0--------0------|
D|--------0--------0--------0--------0------|
A|----2--------2--------2--------2----------|
E|--3---3----3---3----3---3----3---3--------|

Verse [9] | Played like the previous verse

And In the mixed forest with the lakes galore
You always left me wanting more
And in the mixed forest with the lakes galore
You left my heart on the forest floor

Played again with some 'wah ah oh's'

  C               C                  C               C   G
I know I have nothing to give so may as well give up and live

Please let me know if I messed anything up, and as always;
DFTBA
NERDFIGHTERS
HOO HAH
Добавлено: 14.07.2013
Другие материалы по этой песне:
  • Аккорды и текст

Страница создана 14.07.2013
http://primanota.ru/misc-unsigned-bands/laurena-permafrost-chords.htm
Привет, Гость.
Предлагаем пройти революционный курс по гитаре.
Подарок от PrimaNota.Ru, забирай!