PrimaNota.ru - самый крупный в мире бесплатный архив песенных текстов, аккордов, табулатур и нот


Misc Unsigned Bands - Kool Shades - Placebos - таба

Регистрация Запомнить меня
Войти через:  Facebook Google Twitter Vk Yandex Mail.ru

Misc Unsigned Bands - Kool Shades - Placebos - таба

Печатать
Просмотров: 39
Placebos
Kool Shades
Live From The Sun
tabbed by athsmador- anothervivacarter@yahoo.com



Intro
E|---------------------------------------------------|
B|---------------------------------------------------|
G|-9----9----9----9----9-----9----9----9-----9-------|
D|-9----9----9----9----9-----9----9----9-----9-77-99-|
A|-7-77-7-77-7-77-7-77-7-777-7-77-7-77-7-777-7-77-99-|
E|---------------------------------------------55-77-|
 PM  ..   ..   ..   ..   ...    ..  ..   ...   .. ..


Verse
E|-----------------------------------------------------------|
B|-----------------------------------------------------------|
G|----9---9----9----9-------9--------------------------------|
D|----9---9----9----9-------9-------9---9----9----9------9---|
A|-77-7-7-7-77-7-77-7--7-77-7-7-----9---9----9----9------9---|
E|-------------------------------77-7-7-7-77-7-77-7-7-77-7-7-|
PM ..  .    ..   ..    . ..   .  ..   .   ..   ..   . ..   .

E|-----------------------------------------------------------|
B|-----------------------------------------------------------|
G|---11--11---11---11------11--------------------------------|
D|---11--11---11---11------11-------7---7----7----7------7---|
A|-99-9-9-9-99-9-99-9--9-99-9-9-----7---7----7----7------7---|
E|-------------------------------55-5-5-5-55-5-55-5-5-55-5-5-|
PM ..  .    ..   ..    . ..   .  ..   .   ..   ..   . ..   .

Chorus- x2
   E        B        C#       G#       A        E         B
E|-------------------------------------------------------------------------|
B|-------------------------------------------------------------------------|
G|----------44444444-666666666-------------------99999999------------------|
D|-22222222-44444444-666666666-66666666-77777777-99999999-9999999999999999-|
A|-22222222-22222222-444444444-66666666-77777777-77777777-9999999999999999-|
E|-00000000--------------------44444444-55555555----------7777777777777777-|

repeat verse
play chorus twice

then this however many times
E|---------------------------------------------------------------------|
B|---------------------------------------------------------------------|
G|-9-9-9-9-9-9-9-9-----------------------------------------------------|
D|-9-9-9-9-9-9-9-9--6-6-6-6-6-6-6-6--7-7-7-7-7-7-7-7--9-9-9-9-9-9-9-9--|
A|-7-7-7-7-7-7-7-7--6-6-6-6-6-6-6-6--7-7-7-7-7-7-7-7--9-9-9-9-9-9-9-9--|
E|------------------4-4-4-4-4-4-4-4--5-5-5-5-5-5-5-5--7-7-7-7-7-7-7-7--|


Clean part-THIS ISNT DEAD ON BUT THE CHORDS ARE RIGHT PLAY AROUND WITH IT AND 

D= downstroke
U= upstroke

(upstroke rake) U  D  U    D   U  D  U  D   D  U  D  U D  D    U  D   U  D
E|-0----------0-----0----7~--7-----7------4~--4-----4----5~---5-----5----|
B|--0---------0-----0----7~--7-----7------5~--5-----5----5~---5-----5----|
G|---1--------1--1--1----8~--8--8--8--8---6~--6--6--6-4--6~---6--6--6--6-|
D|----2----------2-------9~-----9-----9---6~-----6----6--7~------7-----7-|
A|-----2---------2-------9~-----9-----9---4~-----4----4--7~------7-----7-|
E|------0~-------0-------7~-----7-----7------------------5~------5-----5-|


repeat that then moss goes ahead and plays an arpeggios of that chord figure, but its 
tough to figure out but playing this sounds good:

         U  D  U    D   U  D  U  D   D   U  D  U  D  D    U  D  U  D
E|-0~----0-----0----7~--7-----7------4~--4-----4----5~---5-----5----|
B|-0~----0-----0----7~--7-----7------5~--5-----5----5~---5-----5----|
G|-1~----1--1--1----8~--8--8--8--8---6~--6--6--6-4--6~---6--6--6--6-|
D|-2~-------2-------9~-----9-----9---6~-----6----6--7~------7-----7-|
A|-2~-------2-------9~-----9-----9---4~-----4----4--7~------7-----7-|
E|-0~-------0-------7~-----7-----7------------------5~------5-----5-|

then another guitar (distorted) comes in and it plays  this:
E|-------------------------------------------------------------------------|
B|-------------------------------------------------------------------------|
G|-------------------------------------6666666666666666--------------------|
D|-2222222222222222--9999999999999999--6666666666666666--7777777777777777--|
A|-2222222222222222--9999999999999999--4444444444444444--7777777777777777--|
E|-0000000000000000--7777777777777777--------------------5555555555555555--|

then it changes to this and im still workin on it but the first three notes are
E|---------------------|
B|--10-9--5~-----------|
G|---------------------|
D|---------------------|
A|---------------------|


k then the chorus-with an acoustic and a distorted electric playing
Then on the next chorus after that, theres an overdubbed acoustic n im still working on it


then chorus again n then outro


E|-------------------------------------|
B|-------------------------------------|
G|-9-9-9-9-9-9-9-9-9-9-9-9-9-9---------|
D|-9-9-9-9-9-9-9-9-9-9-9-9-9-9--77--99-|
A|-7-7-7-7-7-7-7-7-7-7-7-7-7-7--77--99-|
E|------------------------------55--77-|

E|------------------------------------------|
B|------------------------------------------|
G|-9-9-9-9-9-9-9-9-9-9-9-9-9-9-----------9~-|
D|-9-9-9-9-9-9-9-9-9-9-9-9-9-9--77--99---9~-|
A|-7-7-7-7-7-7-7-7-7-7-7-7-7-7--77--99---7~-|
E|------------------------------55--77------|
Добавлено: 21.09.2013
Другие материалы по этой песне:
  • Аккорды и текст

Страница создана 21.09.2013
http://primanota.ru/misc-unsigned-bands/kool-shades-placebos-chords.htm
Привет, Гость.
Предлагаем пройти революционный курс по гитаре.
Подарок от PrimaNota.Ru, забирай!