PrimaNota.ru - самый крупный в мире бесплатный архив песенных текстов, аккордов, табулатур и нот


Misc Unsigned Bands - Keyes - Eleanor Lamb - таба

Регистрация Запомнить меня
Войти через:  Facebook Google Twitter Vk Yandex Mail.ru

Misc Unsigned Bands - Keyes - Eleanor Lamb - таба

Печатать
Просмотров: 69
Уроки эстрадного вокала в Санкт-Петербурге
-------------------------------------------------------------------------------
                            ELEANOR LAMB - Keyes
-------------------------------------------------------------------------------
Tabbed by: CrashAshes43
E-mail: xgib50nking@yahoo.com

Tuning: F G# C# F# A# D#
Everything is tuned down a half step except the low E which is tuned up to an F.
(Thanks to Keyes for the info.)

Section - Guitar(s) [Effect] (Start time - End Time)
Got it? Good.

Song: Eleanor Lamb
Artist: Keyes
Album: Therefore/Without
Genre: Skramz/Post-Hardcore
Released: September 21st, 2011

Guitar 1 - Kyle Allen (Left channel)
Guitar 2 - Ian Alvarez (Right channel)

Intro - Guitar 1 [Clean/Reverb] (0:00 - 0:14)
D#|--------------------------------------------------------------------------|
A#|--------------------------------------------------------------------------|
F#|--------------------------------------------------------------------------|
C#|-11~~------------------------------------------------------------9~~------| x2
G#|----------------------0~~------------------11~~---------------------------|
F |--------------------------------------------------------------------------|

        Guitar 2 [Clean] (0:00 - 0:14)
D#|--------------------------------------------------------------------------------|
A#|----12---9---12---9------12---9---12---9------9--------9----------9-----9-----9-|
F#|-------9-------(9)----------9-------(9)------------9--------9-------8-----8-----|
C#|-11-------------------11------------------------11------(11)----9-----9-----9---|
G#|-------------------------------------------11-----------------------------------|
F |--------------------------------------------------------------------------------|
  
D#|----------------------------------------------------------------------0-----0---|
A#|----12---9---12---9------12---9---12---9------9--------9----------9-----9-----9-|
F#|-------9-------(9)----------9-------(9)------------9--------9-------8-----8-----|
C#|-11-------------------11------------------------11------(11)----9---------------|
G#|-------------------------------------------11-----------------------------------|
F |--------------------------------------------------------------------------------|



Intro - Guitar 1 [Distortion/Reverb] (0:14 - 0:27)
D#|-16///////----19///////----14///////----12///////-|
A#|--------------------------------------------------|
F#|--------------------------------------------------|
C#|--------------------------------------------------| x2
G#|--------------------------------------------------|
F |--------------------------------------------------|

        Guitar 2 [Distortion] (0:14 - 0:27)
D#|----------------------------------------0-0---0-0-|
A#|-12-12-12-12--12-12---12---9--9--9--9---9-9---9-9-|
F#|-9--9--9--9---9--9----9----9--9--9--9---8-8---8-8-|
C#|-11-11-11-11--11-11---11---11-11-11-11--9-9---9-9-| x2
G#|---------------------------11-11-11-11------------|
F |--------------------------------------------------|



Verse - Guitar 1 [Distortion/Reverb] (0:27 - 0:40)
D#|-16\---14--16\---14--12\---11--12---12/14-14-|
A#|---------------------------------------------|
F#|---------------------------------------------|
C#|---------------------------------------------|
G#|---------------------------------------------|
F |---------------------------------------------|

        Guitar 2 [Distortion] (0:27 - 0:40)
D#|-------------------|
A#|-5-----9------7----|
F#|-6-----11-----9----|
C#|-x-x6--x--x3--x-x3-| x4
G#|-4-----9------7----|
F |-------------------|



Verse - Guitar 1 [Distortion/Reverb] (0:40 - 0:53)
D#|-12-------------------12---------------------|
A#|-----12--14------12-------12--14-------------|
F#|------------13-------------------13--11--/13-|
C#|---------------------------------------------| x2
G#|---------------------------------------------|
F |---------------------------------------------|

        Guitar 2 [Distortion] (Distortion] (0:27 - 0:40)
D#|(4)-------------0------0----------------------|
A#|----------------0------4----------------------|
F#|-6------11------1------4----------------------|
C#|-x-x12--9-x12---2------2-x7---x-x-pb7pbr6b7b6-|
G#|-4------11------x-x12--2----------------------|
F |----------------2-----------------------------|



Verse - Guitar 1 [Distortion] (0:53 - 1:20)
D#|---------------0--|-----0-0-0-|----------|
A#|-----12-9--9---9--|-9---9-9-9-|-9--9--9--|
F#|-----------9---8--|-9---8-8-8-|-9--9--9--|
C#|---9-------11--9--|-11--9-9-9-|-11-11-11-|
G#|-----------11-----|-11--------|-11-11-11-|
F |------------------|-----------|----------|

        Guitar 2 [Distortion] (0:53 - 1:20)
D#|---------------------------|-4--0-0-0-|-4-4-4-|
A#|---------------5--7h9p7----|-5--4-4-4-|-5-5-5-|
F#|-------4---4h6----------9\-|-6--4-4-4-|-6-6-6-|
C#|----2----------------------|----------|-------|
G#|-4-------------------------|----------|-------|
F |---------------------------|----------|-------|



Interlude - Guitar 1 [Clean] (1:20 - 1:48)
D#|------------------------------------------------|
A#|-----9~~----12---------------9~~----12----------|
F#|-9~~-9~~-11-13-4~~-6--8--9~~-9~~-11-13-4~~-6--8-|
C#|-9~~-11~-13-14-7~~-7--9--9~~-11~-13-14-7~~-7--9-|
G#|---------------0~~-------11~-----------0~~------|
F |------------------------------------------------|

            Guitar 2 [Clean] (1:20 - 1:48)
D#|--------------7/9------------------------12------------7/9-7----7-|
A#|-----------9------9-------------------12----12--9----9--------9---|
F#|------9h11----------11\9--9/11-11/13--(9)---------11--------------|
C#|-9/11-------------------------------------------------------------| x2
G#|------------------------------------------------------------------|
F |------------------------------------------------------------------|



Interlude - Guitar 1 [Distortion] (1:48 - 2:15)
D#|-------------0-----0----|
A#|-------------0-----4----|
F#|-6-----6-----1-----4----|
C#|-x-x8--4-----2-----2-x8-| x2
G#|-4-----4-x8--x-x8--2----|
F |-------0-----2----------|

            Guitar 2 [Distortion] (1:48 - 2:15)
D#|--------------7/9------------------------12------------7/9-7----7-|
A#|-----------9------9-------------------12----12--9----9--------9---|
F#|------9h11----------11\9--9/11-11/13--(9)---------11--------------|
C#|-9/11-------------------------------------------------------------| x2
G#|------------------------------------------------------------------|
F |------------------------------------------------------------------|




Bridge - Guitar 1 [Distortion] (2:15 - 2:41)
D#|---------------------------------------------------------------------------9--|
A#|-12-12-12-12-12--12-12-12-12-12--12-12--12-12-12-12-12--12-12-12-12-12--12-9--|
F#|-9--9--9--9--9---9--9--9--9--9---9--9---9--9--9--9--9---9--9--9--9--9---9--9--|
C#|-11-11-11-11-11--11-11-11-11-11--11-11--11-11-11-11-11--11-11-11-11-11--11-11-|
G#|------------------------------------------------------------------------------|
F |------------------------------------------------------------------------------|

D#|----------------------------------------0-0-0-0-0--0-0-0-0-0--0-0-|
A#|-9--9--9--9--9---9--9--9--9--9---9--9---9-9-9-9-9--9-9-9-9-9--9-9-|
F#|-9--9--9--9--9---9--9--9--9--9---9--9---8-8-8-8-8--8-8-8-8-8--8-8-|
C#|-11-11-11-11-11--11-11-11-11-11--11-11--9-9-9-9-9--9-9-9-9-9--9-9-| x2
G#|-11-11-11-11-11--11-11-11-11-11--11-11----------------------------|
F |------------------------------------------------------------------|

        Guitar 2 [Distortion] (2:15 - 2:41)
D#|------------------------------------------------------|
A#|-5-5-5-5-5--5-5-5-5-5--5-5--5-5-5-5-5--5-5-5-5-5--5-5-|
F#|-6-6-6-6-6--6-6-6-6-6--6-6--6-6-6-6-6--6-6-6-6-6--6-6-|
C#|-6-6-6-6-6--6-6-6-6-6--6-6--6-6-6-6-6--6-6-6-6-6--6-6-|
G#|-4-4-4-4-4--4-4-4-4-4--4-4--4-4-4-4-4--4-4-4-4-4--4-4-|
F |------------------------------------------------------|

D#|-0-0-0-0-0--0-0-0-0-0--0-0--0-0-0-0-0--0-0-0-0-0--0-0-|
A#|-0-0-0-0-0--0-0-0-0-0--0-0--4-4-4-4-4--4-4-4-4-4--4-4-|
F#|-1-1-1-1-1--1-1-1-1-1--1-1--4-4-4-4-4--4-4-4-4-4--4-4-|
C#|-2-2-2-2-2--2-2-2-2-2--2-2--2-2-2-2-2--2-2-2-2-2--2-2-| x2
G#|-x-x-x-x-x--x-x-x-x-x--x-x--2-2-2-2-2--2-2-2-2-2--2-2-|
F |-2-2-2-2-2--2-2-2-2-2--2-2----------------------------|



Break - Guitar 1 [Distortion] (2:41 - 2:55)
Freely strum this chord, catching the grace notes occasionally
D#|(9)---|
A#|-12---|
F#|-9----|
C#|-11---|
G#|(0)---|
F |------|

        Guitar 2 [Distortion] (2:41 - 2:55)
Strum to the beat of the bass drum
D#|-4----------|
A#|-5----9-----|
F#|-6----11----|
C#|-6----9-----|
G#|-4----11----|
F |------------|



Outro - Guitar 1 [Distortion] (2:55 - End)
D#|-9///////--12///////--11///////-|
A#|-9///////--12///////--12///////-|
F#|(9)-------(13)-------(11)-------|
C#|--------------------------------|
G#|--------------------------------|
F |--------------------------------|

        Guitar 2 [Distortion] (2:55 - End)
D#|(4)-----0------0-----|
A#|--------0------4-----|
F#|-6------1------4-----|
C#|-x-x24--2------2-----|
G#|-4------x-x12--2-x12-|
F |--------2------------|

************************************

| /   slide up
| \   slide down
| h   hammer-on
| p   pull-off
| ~   vibrato
| +   harmonic
| x   Mute note
| /// Tremolo Picking
| b   Bend
| pb  Pre-bend
| br  Bend release
| pbr Pre-bend release
| brb Bend release bend

************************************
Добавлено: 08.11.2013
Другие материалы по этой песне:
  • Аккорды и текст

Страница создана 08.11.2013
http://primanota.ru/misc-unsigned-bands/keyes-eleanor-lamb-chords.htm
Привет, Гость.
Предлагаем пройти революционный курс по гитаре.
Подарок от PrimaNota.Ru, забирай!