PrimaNota.ru - самый крупный в мире бесплатный архив песенных текстов, аккордов, табулатур и нот


Misc Unsigned Bands - Kill Em Charlie - Scatter - таба, видео

Регистрация Запомнить меня
Войти через:  Facebook Google Twitter Vk Yandex Mail.ru

Misc Unsigned Bands - Kill Em Charlie - Scatter - таба, видео

Печатать
Просмотров: 63
-----------------------------------------------------------------------------
                         Scatter - Kill 'Em Charlie
-----------------------------------------------------------------------------


Intro/Verse 

e|---------------------------------------------------------------|
B|---------------------------------------------------------------|
G|--------------------------------9------------11----------------| 
D|-9---------------6--------------9-(x10)------11-(x10)----------|
A|-9-(x10)-4h6p4p0-6-(x10)-4h6p4/-7------7h9p7-9-----------------|
E|-7---------------4-----------------------------------9h11-9----|
   X               X              X            X     

                                         |----|
                                         |----|
 At the end of the verse, just strum the |-11-|
                                         |-11-|
                                         |-9--|
                                         |----|


Chorus

e|-----X-X-X-X---------X-X-X-X-X-X-----X-X-X-X---------X-X-X-X-X-X-|
B|-----X-X-X-X---------X-X-X-X-X-X-----X-X-X-X---------X-X-X-X-X-X-|
G|-----X-X-X-X---------X-X-X-X-X-X-----X-X-X-X---------X-X-X-X-X-X-|
D|-6-6-X-X-X-X-6-6-6-6-X-X-X-X-X-X-4-4-X-X-X-X-4-4-4-4-X-X-X-X-X-X-|
A|-6-6-X-X-X-X-6-6-6-6-X-X-X-X-X-X-4-4-X-X-X-X-4-4-4-4-X-X-X-X-X-X-|
E|-4-4-X-X-X-X-4-4-4-4-X-X-X-X-X-X-2-2-X-X-X-X-2-2-2-2-X-X-X-X-X-X-|

e|-----X-X-X-X---------X-X-X-X-X-X-----X-X-X-X---------X-X-X-X-X-X-|
B|-----X-X-X-X---------X-X-X-X-X-X-----X-X-X-X---------X-X-X-X-X-X-|
G|-1-1-X-X-X-X-1-1-1-1-X-X-X-X-X-X-----X-X-X-X---------X-X-X-X-X-X-|
D|-2-2-X-X-X-X-2-2-2-2-X-X-X-X-X-X-4-4-X-X-X-X-4-4-4-4-X-X-X-X-X-X-|
A|-2-2-X-X-X-X-2-2-2-2-X-X-X-X-X-X-4-4-X-X-X-X-4-4-4-4-X-X-X-X-X-X-|
E|-----X-X-X-X---------X-X-X-X-X-X-2-2-X-X-X-X-2-2-2-2-X-X-X-X-X-X-|

e|---------------------------------|
B|---------------------------------|
G|-----------------1---------------|
D|-6-------4-------2-(x10)-4-------|
A|-6-(x10)-4-(x10)-2-------4-(x10)-|
E|-4-------2---------------2-------|



Bridge
e|---------------------------------------|
B|---------------------------------------|
G|---------------------------------------|
D|-9-------6-------9-------11------13-14-|
A|-9-(x10)-6-(x10)-9-(x10)-11-(x3)-13-14-|
E|-7-------4-------7-------9-------11-12-|


Naaaaaa, na na na na naaaaaaa, na na na na naaaaaaaa, na na na na naaaaaaa!

On the third round of na's, a version of the verse kicks in again.

e|-----------------------------------------------------------------------|
B|-----------------------------------------------------------------------|
G|------------------------------------9-9---9-9-------11-----------------|
D|-9-9---9-9---------6-6---6-6--------9-9---9-9-7h9p7-11-(strum crazily)-|
A|-9-9---9-9-4h6p4p0-6-6---6-6-4h6p4/-7-7---7-7-------9------------------|
E|-7-7---7-7---------4-4---4-4-------------------------------------------|

On the final chorus, just strum it all.

e|---------------------------------|
B|---------------------------------|
G|-----------------1---------------|  (x2)
D|-6-------4-------2-(x10)-4-------|
A|-6-(x10)-4-(x10)-2-------4-(x10)-|
E|-4-------2---------------2-------|


e|---|
B|---|
G|-4-|
D|-4-| (let ring)
A|-2-|
E|---|

And that's it, the song is over :D


Intro
Verse
Chorus
Verse
Chorus
Bridge (Na's)
Chorus

************************************

| /   slide up
| \   slide down
| h   hammer-on
| p   pull-off
| ~   vibrato
| +   harmonic
| x   Mute note
| b   Bend
| pb  Pre-bend
| br  Bend release
| pbr Pre-bend release
| brb Bend release bend

************************************
Добавлено: 20.07.2013
Другие материалы по этой песне:
  • Аккорды и текст

Страница создана 20.07.2013
http://primanota.ru/misc-unsigned-bands/kill-em-charlie-scatter-chords.htm
Привет, Гость.
Предлагаем пройти революционный курс по гитаре.
Подарок от PrimaNota.Ru, забирай!