PrimaNota.ru - самый крупный в мире бесплатный архив песенных текстов, аккордов, табулатур и нот


Misc Unsigned Bands - Keleys Toy Dinosaur - Grease - бас-таба

Регистрация Запомнить меня
Войти через:  Facebook Google Twitter Vk Yandex Mail.ru

Misc Unsigned Bands - Keleys Toy Dinosaur - Grease - бас-таба

Печатать
Просмотров: 46

chorus (4x)
|------------------------------------------------|
|------------------------------------------------|
|-2-2-2-2-2-2-2-2-2-2-2-2-2-2-2-2-4-4-4-X-X-4-4-4|
|------------------------------------------------|


Random Part
|-------3-------6-------3--------9--------|
|-2h3p2---3h4p3---2h3p2----3h4p3----------|
|-----------------------------------------|
|-----------------------------------------|


filler(2x)
|----------------------|
|----------------------|
|--2-2-2-2-4-4-4-4-----|
|----------------------|


Bridge (2x)
|----------------------------------------|
|-1-1-1-1-1-1-1-1-5-5-5-5-5-5-5-5--------|
|----------------------------------------|
|----------------------------------------|


Ending Bass (play repeatedly)
|------------------------|
|------------------------|
|--2-2-2-2-2-2-2-2-4-4-4-|
|------------------------|
Добавлено: 15.09.2013
Другие материалы по этой песне:
  • Аккорды и текст

Страница создана 15.09.2013
http://primanota.ru/misc-unsigned-bands/keleys-toy-dinosaur-grease-chords.htm
Привет, Гость.
Предлагаем пройти революционный курс по гитаре.
Подарок от PrimaNota.Ru, забирай!