PrimaNota.ru - самый крупный в мире бесплатный архив песенных текстов, аккордов, табулатур и нот


Misc Unsigned Bands - Last Place - Arms Raised High - бас-таба, видео

Регистрация Запомнить меня
Войти через:  Facebook Google Twitter Vk Yandex Mail.ru

Misc Unsigned Bands - Last Place - Arms Raised High - бас-таба, видео

Печатать
Просмотров: 38
Bass doesn't play until second verse.

Verse 2:

G|------24-44242---|------24-4424/7--|------------------|-----------------|
D|-----4--------40-|-----4-----------|------24-44242----|------24-44242---|
A|2-2-2------------|2-2-2------------|-----4---------40-|-----4--------40-|
E|-----------------|-----------------|2-2-2-------------|2-2-2------------|

G|------24-44242---|------24-4424/7--|------------------|-----------------|
D|-----4--------40-|-----4-----------|------24-44242----|------24-44242---|
A|2-2-2------------|2-2-2------------|-----4--------40--|-----4--------40-|
E|-----------------|-----------------|2-2-2-------------|2-2-2------------|

G|------24-44242---|------24-4424/7--|------------------|-----------------|
D|-----4--------4--|-----4-----------|------24-44242----|------24-44242---|
A|2-2-2------------|2-2-2------------|-----4--------40--|-----4--------40-|
E|-----------------|-----------------|2-2-2-------------|2-2-2------------|

Pre-Chorus:

G|--------------|--------------|---------------|--------------|
D|--------------|--------------|---------------|--------------|
A|0-2202--------|0-2202--------|-2222-0000-----|--------------|  
E|--------------|--------------|---------------|-3333-2222----|

Chorus:

G|--------------|--------------|---------------|--------------|
D|--------------|--------------|---------------|--------------|
A|--------------|--------------|---------------|--------------|  X2  
E|-7777-5555----|-3333-2222----|-7777-5555-----|-3333-2222----|

Solo:

G|--------------|--------------|---------------|--------------|
D|--------------|--------------|---------------|--------------|
A|--------------|--------------|---------------|--------------|  X2
E|-7777-5555----|-3333-2222----|-7777-5555-----|-3333-2222----|

Bridge:

G|--------------|--------------|---------------|------------------|
D|--------------|--------------|---------------|------------------|
A|--------------|--------------|---------------|------------------|  
E|--33333333----|--55555555----|-66666666------|-7-7-77-55555555-0|
Добавлено: 31.12.2013
Другие материалы по этой песне:
  • Аккорды и текст

Страница создана 31.12.2013
http://primanota.ru/misc-unsigned-bands/last-place-arms-raised-high-chords.htm
Привет, Гость.
Предлагаем пройти революционный курс по гитаре.
Подарок от PrimaNota.Ru, забирай!