PrimaNota.ru - самый крупный в мире бесплатный архив песенных текстов, аккордов, табулатур и нот


Misc Unsigned Bands - Justin Hinds And The Dominoes - Mother Banner - бас-таба

Регистрация Запомнить меня
Войти через:  Facebook Google Twitter Vk Yandex Mail.ru

Misc Unsigned Bands - Justin Hinds And The Dominoes - Mother Banner - бас-таба

Печатать
Просмотров: 51
http://www.amazon.com/Ska-Uprising-Justin-Hinds-Dominoes/dp/B0000011GU
Or
http://www.allmusic.com/cg/amg.dll?p=amg&sql=11:26xsa9ygb23u~T1

-------------------------------------------------------------------------------
		Mother Banner - Justin Hinds & The Dominoes
-------------------------------------------------------------------------------

Tabbed By : Yazper
e-mail: shitfacedcockmasters@hotmail.com

Tuning: standard

This is a ska song so its quite simple.
The basis of the bass-part is formed by 4 notes


G|---------------------------------------------------------------------------|
D|-----------12--------------------------------------------------------------|
A|-----12-------10-----------------------------------------------------------|
E|-10------------------------------------------------------------------------|


And this is actually more like two parts with each 2 notes.
You can play just those 4 notes to the CD, but
why not add some leading and inbetween notes
just to add some flavour (this is what they do on the CD):

Like:

G|---------------------------------------------------------------------------|
D|----------------12-11-10---------------------------------------------------|
A|-----10-12---------------10------------------------------------------------|
E|-10------------------------------------------------------------------------|

or

G|---------------------------------------------------------------------------|
D|-----------------12--10----------------------------------------------------|
A|----10-11-12-----------10--------------------------------------------------|
E|-10------------------------------------------------------------------------|

or

G|---------------------------------------------------------------------------|
D|-----------------12--------------------------------------------------------|
A|-----11-12------------10---------------------------------------------------|
E|-10------------------------------------------------------------------------|


You can just about combine all kinds of these two parts of the bass riff
and its gonna fit right into the song.

Enjoy!
===============================================================================
Добавлено: 10.10.2013
Другие материалы по этой песне:
  • Аккорды и текст

Страница создана 10.10.2013
http://primanota.ru/misc-unsigned-bands/justin-hinds-and-the-dominoes-mother-banner-chords.htm
Привет, Гость.
Предлагаем пройти революционный курс по гитаре.
Подарок от PrimaNota.Ru, забирай!