PrimaNota.ru - самый крупный в мире бесплатный архив песенных текстов, аккордов, табулатур и нот


Misc Unsigned Bands - Jack Conte - Eat - таба

Регистрация Запомнить меня
Войти через:  Facebook Google Twitter Vk Yandex Mail.ru

Misc Unsigned Bands - Jack Conte - Eat - таба

Печатать
Просмотров: 34
Jack conte - eat
http://www.myspace.com/jackconte
Tabbed by: tony trejo
http://www.myspace.com/tonytrejo14

http://nz.youtube.com/watch?v=D2PwVkQBp5o

Intro (Palm mute):
E ----------0------------0-----------0-----------0--------|
B -------7-----7-------7---7-------7---7-------7---7------|
G -----5---------5---5-------5---5-------5---5-------5----|
D ---7-------------7-----------6-----------6--------------|
A --------------------------------------------------------|
E --------------------------------------------------------|


E ---------0-----------0------------0---------------------|
B -------3---3-------3---3--------3---3--------3----------|
G -----5-------5---5-------5----5-------5----5------------|
D ---3-----------3------------4------------3------2-------|     x4
A --------------------------------------------------------|
E --------------------------------------------------------|

Chorus (Finger strum)
E -x--x---x-----------------------------------------------|
B -x--x---x-----------------------------------------------|
G -6--9---10--8/14----------------------------------------|     x6
D -5--8---10--8/14----------------------------------------|
A -7--10--8---6/12----------------------------------------|
E -5--8-------x-x-----------------------------------------|

Solo
E -------------15--12----15--12--12--15--17--15--15--12-10-|
B -5~-5~-5~-17--------17-----------------------------------|
G ---------------------------------------------------------|
D ---------------------------------------------------------|
A ---------------------------------------------------------|
E ---------------------------------------------------------|


E ---15--12----15--12-------------------------------------|
B -17-------17--------17--13--15--15--13--15--13----------|
G --------------------------------------------------------|     x2
D --------------------------------------------------------|
A --------------------------------------------------------|
E --------------------------------------------------------|

Tremlo pick/Finale
E --------------------------------------------------------|
B -13--15--17--18--19--20---------------------------------|
G --------------------------------------------------------|
D --------------------------------------------------------|
A --------------------------------------------------------|
E --------------------------------------------------------|
Добавлено: 19.12.2013
Другие материалы по этой песне:
  • Аккорды и текст

Страница создана 19.12.2013
http://primanota.ru/misc-unsigned-bands/jack-conte-eat-chords.htm
Привет, Гость.
Предлагаем пройти революционный курс по гитаре.
Подарок от PrimaNota.Ru, забирай!