PrimaNota.ru - самый крупный в мире бесплатный архив песенных текстов, аккордов, табулатур и нот


Misc Unsigned Bands - Jake Shimabukuro - While My Guitar Gently Weeps - таба

Регистрация Запомнить меня
Войти через:  Facebook Google Twitter Vk Yandex Mail.ru

Misc Unsigned Bands - Jake Shimabukuro - While My Guitar Gently Weeps - таба

Печатать
Просмотров: 56
Verse

-0-2-3---0-2-3---0-2-3---5--3--|
-0-------3-------2-------1-----|
-0-------0-------0-------0-----|
-2-------2-------2-------2-----|
-------------------------------|
-------------------------------|

                         X
-0--7--3--0--5--2h5----2-|-0--0---------||
-0--8--5--0--3-----3---3-|-2--1--0------||repeat
-0-----------4------4--4-|-0--0--2--1---||verse to
-------------4-----------|-2--2--1------||"X", the
-------------------------|------------4-||2nd time
-0-----------------------|--------------||end with

2nd Verse ending
--3---7--|
--3---4--|
--0---4--|
--0---4--|
---------|
---------|

Chorus (end with fill, then repeat without fill)

----4-4---11---------|----4-4--7--4--|--2-4-2-4-|-7--4--2-|
--5--7-----9--12--(9)|--5--7---4-----|--2-------|-5--2--x-|
--4--------8---------|--6------4-----|--2-------|-6--2--4-|
--6--------9---------|--x------6-----|--2-------|-7--2--1-|
---------------------|--4------------|----------|---------|
--0------------------|---------------|----------|---------|

Fill
------4---------5---------7--|
--2/4----4--4/6----6--7/8----|
-----------------------------|
-----------------------------|
-----------------------------|
-----------------------------|

Repeat the Verse

Solo

Low part of solo (play twice) then middle once.
-3----3----3----3--|| -3----5----5----5---|
-0----3----2----1--|| -0----3----2----1---|
-0----0----0----0--|| -0----0----0----0---|
-2----2----2----2--|| -2----2----2----2---|
-------------------|| --------------------|
-------------------|| --------------------|

Middle part 2 of solo (play once) then play the
next High part (with the 12's) 4 times using
different strumming patterns each time.

?-3----5----7----8--  -12---12---12---12--|
?-0----3----3----3--  --0----0----0----0--|
?-0----0----0----0--  --0----0----0----0--|
?-2----2----2----2--  --9---12---11---10--|
?-------------------  --------------------|
?-------------------  --------------------|

The cool final strum pattern is
d udu d udu d udu d d d
Gradually slow it, then strum the final chord
once and go into the fingerpicking part with the
same chords. I'm not positive on the picking
pattern.

Fingerpicking part (do 2 reps for each chord,
gradually slow and at the end pluck the highest
and lowest strings together.

----12--|----12--|----12--|----12--|
--0-----|--0-----|--0-----|--0-----|
---0----|---0----|---0----|---0----|
-9------|12------|11------|10------|
--------|--------|--------|--------|
--------|--------|--------|--------|

Outro

---0-2-3-----------2-3---------2-3------5-----3-----5-----|
----------------------------2--------1--1--1--1--1--1--1--|
------------------0----------0--------0-----0-----0-----0-|
/2-2-2-2--0-1-2--2------0-2-------------------------------|
----------------------------------------------------------|
----------------------------------------------------------|

-0--7--3--0--5-5---5-2h5----2/4-|-?11-----11-|
-0--8--5--0--3--3-------3---3/5-|-?12--?5----|
-0-----------4---4-------4--4/6-|-?11--?4----|
-------------4------------------|------?2----|
--------------------------------|------------|
-0------------------------------|------------|
Добавлено: 20.08.2013
Другие материалы по этой песне:
  • Аккорды и текст

Страница создана 20.08.2013
http://primanota.ru/misc-unsigned-bands/jake-shimabukuro-while-my-guitar-gently-weeps-chords.htm
Привет, Гость.
Предлагаем пройти революционный курс по гитаре.
Подарок от PrimaNota.Ru, забирай!