PrimaNota.ru - самый крупный в мире бесплатный архив песенных текстов, аккордов, табулатур и нот


Misc Unsigned Bands - If You Take My Life Tonight - Angels Of Death - таба, видео

Регистрация Запомнить меня
Войти через:  Facebook Google Twitter Vk Yandex Mail.ru

Misc Unsigned Bands - If You Take My Life Tonight - Angels Of Death - таба, видео

Печатать
Просмотров: 50
*=harmonic pitch
~=vibrato
h=hammer on
p=pull off
wah//=wah pedal up and down fast
wah\\=wah pedal down
wah|\|=wah pedal up
wah|/|wah pedal down fast and moving up slow
\=slide down
/=slide up
||=pic scrape


E|-----0--1h--4h-5p--8p-|
B|----------------------|
G|--2*------------------|
D|----------------------|
A|----------------------|
D|----------------------|


E|------------------------------------------------------|
B|------------------------------------------------------|
G|------------------------------------------------------|
D|------------------------------------------------------|
A|------------------------------------------------------|
D|--3--5--3--5--7--9--7--9--1--3--1--3--10--12--10--12--|
  wah//

E|--------------------------------7b--9b--3p--1p----------------------------|
B|--------------------------7b--9b--------------1h--3h----------------------|
G|--------------------7b--9b--------------------------1~--3~----------------|
D|--------------7h--9h--------------------------------------1~--3~----------|
A|--------7h--9h--------------------------------------------------1~--3~----|
D|--7h--9h-----------------------------------------------------------1~--3~-|
   wah//                                          wah\\

E|--15p-1h--4h7--9--|h
B|------------------|
G|------------------|
D|------------------|
A|------------------|
D|------------------|
  flanger effect wah\\


E|--12------15--17------------------------------------------7--9--1--3------|
B|------13----------15--17-------------------------------7--9-------1--3----|
G|--------------------------15--17-------------------7--9---------------2---|
D|----------------------------------------------7--9------------------------|
A|----------------------------------------7--9------------------------------|
D|----------------------------------7--9------------------------------------|
   sweet picking


E|--12-13-12-14-12-15-12-16-12-17-12-18-1-2-1-3b-1b--4b-5b-|
B|---------------------------------------------------------|
G|---------------------------------------------------------|
D|---------------------------------------------------------|
A|---------------------------------------------------------|
D|---------------------------------------------------------|
  flanger and delay effects.....chours and reverb effect...

E|---------11--14--------------6--8--------------------6--8------9----15-17-|
B|-----------------12--13--14--------6--8--------6--8--------9--11----------|
G|-----------------------------------------6--8-----------------------------|
D|--------------------------------------------------------------------------|
A|--------------------------------------------------------------------------|
D|--------------------------------------------------------------------------|
           sweet picking

E|--------------------------------------------------------------------------|
B|--------------------------------------------------------------------------|
G|--------------------------------------------------------------------------|
D|--------------------------------------------------------------------------|
A|--------------------------------------------------------------------------|
D|--0--1--0--2--0--3--0--4--0--5--0--6--0--7--0--8--0--9--0--10--0--11------|
    ******************************************************************


E|--8--12-------------------13--14--15--------------------------18--17--16--|
B|---------8--10------------------------13--13--14--15----------------------|
G|----------------8--9--10------------------------------13--14--15----------|
D|--------------------------------------------------------------------------|
A|--------------------------------------------------------------------------|
D|--------------------------------------------------------------------------|
   sweet picking.....all bending and returning


E|------------------------------------------------------------|
B|------------------------------------------------------------|
G|------------------------------------------------------------|
D|--||||||||||||||||||||||||||||||||||||||||||||||||||||||||||
A|--||||||||||||||||||||||||||||||||||||||||||||||||||||||||||
D|--||||||||||||||||||||||||||||||||||||||||||||||||||||||||||

E|-----------------------------9--11b-13--13--14--13--14--15--16--15--18b---|
B|--------------------------------------------------------------------------|
G|---------------------11h--12h---------------------------------------------|
D|--------------10p--12p----------------------------------------------------|
A|-------9~--11~------------------------------------------------------------|
D|--3~--5~------------------------------------------------------------------|
    sweet picking....wah|/|........wah|\|..........wah\\..........wah|/|

E|------------------------------------------------------------|
B|------------------------------------------------------------|
G|------------------------------------------------------------|
D|--||||||||||||||||||||||||||||||||||||||||||||||||||||||||||
A|--||||||||||||||||||||||||||||||||||||||||||||||||||||||||||
D|--||||||||||||||||||||||||||||||||||||||||||||||||||||||||||
Добавлено: 05.11.2013
Другие материалы по этой песне:
  • Аккорды и текст

Страница создана 05.11.2013
http://primanota.ru/misc-unsigned-bands/if-you-take-my-life-tonight-angels-of-death-chords.htm
Привет, Гость.
Предлагаем пройти революционный курс по гитаре.
Подарок от PrimaNota.Ru, забирай!