PrimaNota.ru - самый крупный в мире бесплатный архив песенных текстов, аккордов, табулатур и нот


Misc Unsigned Bands - I Was A Hurricane - Yours And Mine - таба, видео

Регистрация Запомнить меня
Войти через:  Facebook Google Twitter Vk Yandex Mail.ru

Misc Unsigned Bands - I Was A Hurricane - Yours And Mine - таба, видео

Печатать
Просмотров: 73
Уроки эстрадного вокала в Санкт-Петербурге
Artist: I Was A Hurricane
Song: Yours and Mine
Album: I Was A Hurricane - EP
Tabbed by: JonnyyyWasAHurricane

http://www.youtube.com/watch?v=He9zTIBpKfA

Dropped C Tuning

Guitar 1

Intro

D|------5h7p7--|-------2---------|--------2-----|--------------|-5-----|
A|---3---------|----2----2h3p2---|----3----3-3--|----7-----10--|-7-----|
F|-------------|---2-2---------2-|---4-4----4---|---7-7---9--9-|-7-----|
C|-0-----------|-----------------|--------------|--------------|-7-----|
G|-------------|-0---------------|-2------------|--------------|-5-----|
C|-------------|-----------------|--------------|-5-----7------|-------|

Verse 1

D|-------------|--------------|--------------|--------------|
A|----7-----7--|----2-----2---|----3-----3---|--------------|
F|---7-7---7-7-|---2-2---2-2--|---4-4---4-4--|----7-----9---| 
C|-0-----0-----|--------------|--------------|---7-7---7-7--| x2
G|-------------|-0-----0------|-2-----2------|--------------|
C|-------------|--------------|--------------|-5-----7------|

Chorus

D|--X--X--X--X-X-X-|--X--X--X--X-X-X-|--X--X--X--X-X-X-|------------------|
A|--7--7--7--7-7-7-|--2--2--2--2-2-2-|--3--3--3--3-3-3-|------------------|
F|--7--7--7--7-7-7-|--2--2--2--2-2-2-|--4--4--4--4-4-4-|------------------|
C|--7--7--7--7-7-7-|--2--2--2--2-2-2-|--4--4--4--4-4-4-|--5--5-557--7-77--|
G|--5--5--5--5-5-5-|--0--0--0--0-0-0-|--2--2--2--2-2-2-|--5--5-557--7-77--|
C|-----------------|-----------------|-----------------|--5--5-557--7-77--|

Verse 2

D|-------------|--------------|--------------|--------------|
A|-7--7-----7--|----2-----2---|----3-----3---|--------------|
F|-7---7---7-7-|---2-2---2-2--|---4-4---4-4--|----7-----9---| 
C|-7-----0-----|--------------|--------------|---7-7---7-7--|
G|-5-----------|-0-----0------|-2-----2------|--------------|
C|-------------|--------------|--------------|-5-----7------|


D|-------------|--------------|--------------|--------------|
A|----7-----7--|----2-----2---|----3-----3---|--------------|
F|---7-7---7-7-|---2-2---2-2--|---4-4---4-4--|----7-----9---| 
C|-0-----0-----|--------------|--------------|---7-7---7-7--|
G|-------------|-0-----0------|-2-----2------|--------------|
C|-------------|--------------|--------------|-5-----7------|

Chorus

D|--X--X--X--X-X-X-|--X--X--X--X-X-X-|--X--X--X--X-X-X-|------------------|
A|--7--7--7--7-7-7-|--2--2--2--2-2-2-|--3--3--3--3-3-3-|------------------|
F|--7--7--7--7-7-7-|--2--2--2--2-2-2-|--4--4--4--4-4-4-|------------------|
C|--7--7--7--7-7-7-|--2--2--2--2-2-2-|--4--4--4--4-4-4-|--5--5-557--7-77--|
G|--5--5--5--5-5-5-|--0--0--0--0-0-0-|--2--2--2--2-2-2-|--5--5-557--7-77--|
C|-----------------|-----------------|-----------------|--5--5-557--7-77--|


Verse 3

D|-10------12-------|-5-------5---6---|-7-------7-------|-3-------3------|
A|---10------10-----|---5-------5---5-|---7-------7-----|---3-------3----|
F|-----11------11---|-----6-----------|-----7-------7---|-----4-------4--| 
C|-------12------12-|-------7---------|-------9-------9-|-------5-------5| x2
G|------------------|-----------------|-----------------|----------------|
C|------------------|-----------------|-----------------|----------------|

Chorus

D|--X--X--X--X-X-X-|--X--X--X--X-X-X-|--X--X--X--X-X-X-|------------------|
A|--7--7--7--7-7-7-|--2--2--2--2-2-2-|--3--3--3--3-3-3-|------------------|
F|--7--7--7--7-7-7-|--2--2--2--2-2-2-|--4--4--4--4-4-4-|------------------|
C|--7--7--7--7-7-7-|--2--2--2--2-2-2-|--4--4--4--4-4-4-|--5--5-557--7-77--|
G|--5--5--5--5-5-5-|--0--0--0--0-0-0-|--2--2--2--2-2-2-|--5--5-557--7-77--|
C|-----------------|-----------------|-----------------|--5--5-557--7-77--|


D|--X--------------|
A|--7--------------|
F|--7--------------|
C|--7--------------|
G|--5--------------|
C|-----------------|

Bridge

D|-------------|--------------|--------------|--------------|
A|-------7-----|-------14-----|-------11-----|-------5------|
F|-----7-------|-----14-------|-----12-------|-----5--------| 
C|---7---------|---14---------|---12---------|---5----------| x2
G|-5-----------|-12-----------|-10-----------|-3------------|
C|-------------|--------------|--------------|--------------|

Chorus

D|--X--X--X--X-X-X-|--X--X--X--X-X-X-|--X--X--X--X-X-X-|------------------|
A|--7--7--7--7-7-7-|--2--2--2--2-2-2-|--3--3--3--3-3-3-|------------------|
F|--7--7--7--7-7-7-|--2--2--2--2-2-2-|--4--4--4--4-4-4-|------------------|
C|--7--7--7--7-7-7-|--2--2--2--2-2-2-|--4--4--4--4-4-4-|--5--5-557--7-77--|
G|--5--5--5--5-5-5-|--0--0--0--0-0-0-|--2--2--2--2-2-2-|--5--5-557--7-77--|
C|-----------------|-----------------|-----------------|--5--5-557--7-77--|

D|--X--X--X--X-X-X-|--X--X--X--X-X-X-|--X--X--X--X-X-X-|------------------|
A|--7--7--7--7-7-7-|--2--2--2--2-2-2-|--3--3--3--3-3-3-|------------------|
F|--7--7--7--7-7-7-|--2--2--2--2-2-2-|--4--4--4--4-4-4-|------------------|
C|--7--7--7--7-7-7-|--2--2--2--2-2-2-|--4--4--4--4-4-4-|--5--5-557--7-77--|
G|--5--5--5--5-5-5-|--0--0--0--0-0-0-|--2--2--2--2-2-2-|--5--5-557--7-77--|
C|-----------------|-----------------|-----------------|--5--5-557--7-77--|

D|-----------------|
A|--------7--------|
F|------7----------|
C|----7------------|
G|--5--------------|
C|-----------------|
Добавлено: 19.07.2013
Другие материалы по этой песне:
  • Аккорды и текст

Страница создана 19.07.2013
http://primanota.ru/misc-unsigned-bands/i-was-a-hurricane-yours-and-mine-chords.htm
Привет, Гость.
Предлагаем пройти революционный курс по гитаре.
Подарок от PrimaNota.Ru, забирай!