PrimaNota.ru - самый крупный в мире бесплатный архив песенных текстов, аккордов, табулатур и нот


Misc Unsigned Bands - Imaginary Friends - I Knew This Would Be Love - таба

Регистрация Запомнить меня
Войти через:  Facebook Google Twitter Vk Yandex Mail.ru

Misc Unsigned Bands - Imaginary Friends - I Knew This Would Be Love - таба

Печатать
Просмотров: 83
-------------------------------------------------------------------------------
                             I Knew this would be love - Imaginary Friends
-------------------------------------------------------------------------------
Tabbed by:Benjamin Tang
Email: arsnic_uk@hotmail.com

Tuning: 1=Db 2=A 3=F 4=C 5=G 6=D (CAPO 4)
=====
Intro (x2)
=====
        C
d|---------------------------------------------------------------------------||
A|----1---------1-----1---------1-----1---------1-----1---------1------------|.
F|----0---------0-----0---------0-----0---------0-----0---------0------------||
C|------2---0h2---2-----2---0h2---2-----2---0h2---2-----2---0h2---2----------||
G|----------------------------------3-----3---------3-----3------------------|.
D|--1-----1---------1-----1--------------------------------------------------||
=====
Verse (x3)
=====
        C
e|---------------------------------------------------------------------------||
B|------------------------------------1---------1-----1---------1------------|.
G|----0-----0-----0---0-----0-----0---0---------0-----0---------0------------||
D|------2-----2---------2-----2---------2---0h2---2-----2---0h2---2----------||
A|----------------------------------3-----3---------3-----3------------------|.
E|--1-----1-----1---1-----1-----1--------------------------------------------||
        C                               G                       C
e|---------------------------------------------------------------------------|
B|------------------------------------1---------1-----1---------1------------|
G|----0-----0-----0---0-----0-----0---0---------0-----0---------0------------|
D|------2-----2---------0-----0---------2---0h2---2-----2---0h2---2----------|
A|----------------------------------3-----3---------3-----3------------------|
E|--1-----1-----1---3-----3-----3--------------------------------------------|
======
Chorus x3
======
        F                               G                       C
e|---------------------------------------------------------------------------||
B|------------------------------------1---------1-----1---------1------------|.
G|----2-----2-----2---0-----0-----0---0---------0-----0---------0------------||
D|------3-----3---------0-----0---------2---0h2---2-----2---0h2---2----------||
A|----------------------------------3-----3---------3-----3------------------|.
E|--1-----1-----1---3-----3-----3--------------------------------------------||
        F                               G                       Am
e|---------------------------------------------------------------------------|
B|------------------------------------1---------1-----1---------1------------|
G|----2-----2-----2---0-----0-----0---2---------2-----2---------2------------|
D|------3-----3---------0-----0---------2---0h2---2-----2---0h2---2----------|
A|----------------------------------0-----0---------0-----0------------------|
E|--1-----1-----1---3-----3-----3--------------------------------------------|
        C                               G                       C
e|---------------------------------------------------------------------------|
B|------------------------------------1---------1-----1---------1------------|
G|----0-----0-----0---0-----0-----0---0---------0-----0---------0------------|
D|------2-----2---------0-----0---------2---0h2---2-----2---0h2---2----------|
A|----------------------------------3-----3---------3-----3------------------|
E|--1-----1-----1---3-----3-----3--------------------------------------------|

=======
Verse 1
=======
It's funny how we met on the telephone
You and I on the edge of the unknown
Oh, in only a moment's time
I knew my heart was yours and yours was mine

=======
Verse 2
=======
When I saw you waiting at your place
Something felt familiar in your face
Oh, you smiled as if to say
I knew my heart was yours from the first day

======
Chorus
======
We were right
We stood through it all
Holding tight 
Whenever we fall
What we found is second to none
I knew, I knew, I knew this would be love

=======
Verse 3
=======
There were days when I thought I'd lost you
I read the letter aloud, what could I do?
Now, we're right back where we belong
Don't second guess your heart, it's never wrong

=======
Chorus
=======
We were right
We stood through it all
Holding tight 
Whenever we fall
What we found is second to none
I knew, I knew, I knew this would be love
Добавлено: 09.09.2013
Другие материалы по этой песне:
  • Аккорды и текст

Страница создана 09.09.2013
http://primanota.ru/misc-unsigned-bands/imaginary-friends-i-knew-this-would-be-love-chords.htm
Привет, Гость.
Предлагаем пройти революционный курс по гитаре.
Подарок от PrimaNota.Ru, забирай!