PrimaNota.ru - самый крупный в мире бесплатный архив песенных текстов, аккордов, табулатур и нот


Misc Unsigned Bands - Hyper Echo - Sometimes - таба

Регистрация Запомнить меня
Войти через:  Facebook Google Twitter Vk Yandex Mail.ru

Misc Unsigned Bands - Hyper Echo - Sometimes - таба

Печатать
Просмотров: 85
Уроки эстрадного вокала в Санкт-Петербурге
-------------------------------------------------------------------------------
                             Sometimes- Hyper Echo
-------------------------------------------------------------------------------
Tabbed by: SOVASO
tempo: 126 BPM


Tuning: Standard

The intro is ALL HARMONICS.

Back Round intro chords: B, D, A, G, D, A


Intro
e|---7----7-5--5-7--------7-12-------5-----5-----5-----9-----9-----9----7----|
B|---7----7-5--5-7--------7-12---------5-----5------5----9-----9-----9----7--|
G|---7----7-5--5-7--------7-12-----------5-----5-----------9------9----------|
D|---------------------------------------------------------------------------|
A|---------------------------------------------------------------------------|
E|---------------------------------------------------------------------------|

e|----7-------7------7-7-----------------------------------------------------|
B|------7-------7------------------------------------------------------------|
G|-7-------7------7----------------------------------------------------------|
D|---------------------------------------------------------------------------|
A|---------------------------------------------------------------------------|
E|---------------------------------------------------------------------------|

Chords for the verse:

B       G   A
Sitting on the curb
B            G   A
wonderin' where you are
F   G  A
Yeah!
B          G  A
In a Blink
B          G  A
you forget my name
F
Oh No,

(Pre-chorus)
F         G
Where Are you?
A           B
sometimes I wonder, Yeah!

(Chorus)
B            C#
Sometimes I think
D           E
Sometimes I feel
B   D     A    G    D   A
Why Aren't you here     Oh! (X2)


(Play the Intro chords)

During 2nd Verse follow chord pattern and guitar 2 plays this x6
e|---------------------------------------------------------------------------|
B|---------------------------------------------------------------------------|
G|-------------------------------10-12brb------------------------------------|
D|---------------------10-12brb----------------------------------------------|
A|-----------10-12brb--------------------------------------------------------|
E|---1/12--------------------------------------------------------------------|

B              G     A
waiting on the park bench
B            G   A
I Dont know
 F    G      A
When you'll be here
B           G  A
yeah!
B    G   A
come soon
B  G        A
Oh Bring it on!
F
Oh No,

(Pre-chorus)
F         G
Where Are you?
A           B
sometimes I wonder, Yeah!

(Chorus)
B            C#
Sometimes I think
D           E
Sometimes I feel
B   D     A    G    D   A
Why Aren't you here     Oh! (X2)



SOLO!!!! (applause)
                   T      T      T      T    T      T      T      T
e|-----------------12p5h8h12p5h8h12p5h7h12---13p5h8h13p5h8h13p5h8h13~~~~~~~--|
B|----------5--8-------------------------------------------------------------|
G|-------7-------------------------------------------------------------------|
D|---------------------------------------------------------------------------|
A|---------------------------------------------------------------------------|
E|---------------------------------------------------------------------------|

e|--5=--8=-10=--12~~~~~~~~~~~~~~~~~----12p10h12p10h12p10h12--15======--------|
B|---------------------------------------------------------------------------|
G|---------------------------------------------------------------------------|
D|---------------------------------------------------------------------------|
A|---------------------------------------------------------------------------|
E|---------------------------------------------------------------------------|

Bridge: 66 BPM
B
Here we go
G   A
I dont know
B            B
when I'll be back

F
Oh No,

(Pre-chorus still at 66 BPM)
F         G
Where Are you?
A           B   G        B
sometimes I wonder, Yeah!

(Chorus: Now back to 126 BPM)
B            C#
Sometimes I think
D           E
Sometimes I feel
B   D     A    G    D   A
Why Aren't you here     Oh! (X2)

B  B
Here We Go!

Outro Chords: B, A, G, F, G, A, B, x4

this is my song so rate and leave a comment! this song can be hard but with plenty
of practice, its possible!-SOVASO

************************************

| /   slide up
| \   slide down
| h   hammer-on
| p   pull-off
| ~   vibrato
| +   harmonic
| x   Mute note
| b   Bend
| pb  Pre-bend
| br  Bend release
| pbr Pre-bend release
| brb Bend release bend
| T   Tap
| =   Tremelo picking

************************************
Добавлено: 23.06.2013
Другие материалы по этой песне:
  • Аккорды и текст

Страница создана 23.06.2013
http://primanota.ru/misc-unsigned-bands/hyper-echo-sometimes-chords.htm
Привет, Гость.
Предлагаем пройти революционный курс по гитаре.
Подарок от PrimaNota.Ru, забирай!