PrimaNota.ru - самый крупный в мире бесплатный архив песенных текстов, аккордов, табулатур и нот


Misc Unsigned Bands - Guttural Slug - Eye Of The Cyclops - таба

Регистрация Запомнить меня
Войти через:  Facebook Google Twitter Vk Yandex Mail.ru

Misc Unsigned Bands - Guttural Slug - Eye Of The Cyclops - таба

Печатать
Просмотров: 93
Tabbed by Hyks 11/10/2012

Artist: Guttural Slug
Album: Megalodon
Song: Eye of the Cyclops


Tuning: Drop A
A, E, A, D, Gb, B


Slam 1
||--------------------------||
||--------------------------||
||--------------------------||
||-0--1--3-1-0--4--3-2-3--2-||
||-0--1--3-1-0--4--3-2-3--2-||
||-0--1--3-1-0--4--3-2-3--2-||
   .  .  . . .  .  . . .  .

Main slam                      Don't palm mute this last part the first time
||----------------------------------------------|-----------||
||----------------------------------------------|-----------||
||----------------------------------------------|-----------||
||-0--1-2-3-2-1--0--1-2-3-2-1--0--1-2-3-2-1--0--|-4-3-4-5-6-||
||-0--1-2-3-2-1--0--1-2-3-2-1--0--1-2-3-2-1--0--|-4-3-4-5-6-||
||-0--1-2-3-2-1--0--1-2-3-2-1--0--1-2-3-2-1--0--|-4-3-4-5-6-||
   .  . . . . .  .  . . . . .  .  . . . . .  .    . . . . . 

Slam 3
||---------------------------------||
||---------------------------------||
||---------------------------------||
||-----------4---------------4---5-||
||-3-2-1-2-3-2-3-2-3-2-1-2-3-2-3-3-||
||-3-2-1-2-3---3-2-3-2-1-2-3---3---||
   . . . . .   . . . . . . .   .

Slam 4
||---------------------------------------------------------------||
||---------------------------------------------------------------||
||---------------------------------------------------------------||
||-3-3-3---4-4-4---2-2-2---3-3-3---1-1-1---2-2-2---0-0-0---6-6-6-||
||-3-3-3---4-4-4---2-2-2---3-3-3---1-1-1---2-2-2---0-0-0---6-6-6-||
||-3-3-3---4-4-4---2-2-2---3-3-3---1-1-1---2-2-2---0-0-0---6-6-6-||
   . . .   . . .   . . .   . . .   . . .   . . .   . . .   . . . 

Slam 4 "Variation"
||--------------------------------||
||--------------------------------||
||--------------------------------||
||--------------------------------||
||--------------------------------||
||-3"--4"--2"--3"--1"--2"--0"--2"-||


Slam 5                       1. 2. 4.         3. 5.
||--------------------------|----------------|--------------||
||--------------------------|----------------|--------------||
||--------------------------|----------------|--------------||
||-3-1-3----3-1-3----3-1-3--|--3--1-3-4-3-4--|--------------||
||-3-1-3----3-1-3----3-1-3--|--3--1-3-4-3-4--|-------1------||
||-3-1-3----3-1-3----3-1-3--|--3--1-3-4-3-4--|-1-3-4-----4--||
   . .      . .      . .      . . . . . 

End
||---------------||
||---------------||
||---------------||
||-0~~~~~~~~~~~~-||
||-0~~~~~~~~~~~~-||
||-0~~~~~~~~~~~~-||


Song order:
Slam 1 x6
Main slam x5
Slam 3 x4
Slam 4 x4
Slam 4 variation x4
Main slam x 2
Slam 1 x4
Slam 5 x5 (check tab notations for when to play which ending)
"This is a dangerous group"
Slam 4 x5
End

And that's all. If you have any questions just leave a comment or shoot me a mail 
at Hyks97@hotmail.com.
Добавлено: 23.07.2013
Другие материалы по этой песне:
  • Аккорды и текст

Страница создана 23.07.2013
http://primanota.ru/misc-unsigned-bands/guttural-slug-eye-of-the-cyclops-chords.htm
Привет, Гость.
Предлагаем пройти революционный курс по гитаре.
Подарок от PrimaNota.Ru, забирай!