PrimaNota.ru - самый крупный в мире бесплатный архив песенных текстов, аккордов, табулатур и нот


Misc Unsigned Bands - Girugamesh - Owari To Mirai - таба

Регистрация Запомнить меня
Войти через:  Facebook Google Twitter Vk Yandex Mail.ru

Misc Unsigned Bands - Girugamesh - Owari To Mirai - таба

Печатать
Просмотров: 38
Lead
     Q     E   E  H             E  E  E  E  Q    E  E     
D||------------------------||---------------------------||
A||-------10--10-----------||---------------------------||
F||---------------7--------||*-------------------------*||
C||--0---------------------||*--0--0--0--0--0----0--0--*||
G||--0---------------------||---0--0--0--0--0----0--0---||
C||--0---------------------||---0--0--0--0--0----0--0---||


  Q    Q    Q    Q       E   E   E   E   E  E  Q       E   E   E   H        E   
----------------------|-----------------------------|--------------------------|
----------------------|-----------------------------|--------------------------|
----------------------|--7--14--15--14--10--8--7----|--7--14--15--17--------L--|
--1----1----3----3----|--5--12--13--12---8--6--5----|--5--12--13--15--------L--|
--1----1----3----3----|--5--12--13--12---8--6--5----|--5--12--13--15--------L--|
--1----1----3----3----|--5--12--13--12---8--6--5----|--5--12--13--15--------L--|


    verse                                                          
    W                   W                     Q    Q    Q    Q     
|--------------------|--------------------||----------------------|
|--------------------|--------------------||----------------------|
|*--7----------------|--3----------------*||----------------------|
|*--5----------------|--1----------------*||--1----1----3----3----|
|---5----------------|--1-----------------||--1----1----3----3----|
|---5----------------|--1-----------------||--1----1----3----3----|


  refrain                                                       
  H        H           H         H           H        H         
--------------------|---------------------|--------------------|
--------------------|---------------------|--------------------|
--3--------5--------|--7--------10--------|--3--------5--------|
--1--------3--------|--5---------8--------|--1--------3--------|
--1--------3--------|--5---------8--------|--1--------3--------|
--1--------3--------|--5---------8--------|--1--------3--------|


                                              verse             
  H         H           W                     W                 
---------------------|-------------------||--------------------|
---------------------|-------------------||--------------------|
--7--------10--------|-------------------||*--7----------------|
--5---------8--------|--0----------------||*--5----------------|
--5---------8--------|--0----------------||---5----------------|
--5---------8--------|--0----------------||---5----------------|


  W                     W                   W                 
--------------------||-------------------|-------------------|
--------------------||--6----------------|--1----------------|
--3----------------*||--7----------------|--3----------------|
--1----------------*||--5----------------|--1----------------|
--1-----------------||--5----------------|--1----------------|
--1-----------------||--5----------------|--1----------------|


  refrain                                                       
  H        H           H         H           H        H         
--------------------|---------------------|--------------------|
--------------------|---------------------|--------------------|
--3--------5--------|--7--------10--------|--3--------5--------|
--1--------3--------|--5---------8--------|--1--------3--------|
--1--------3--------|--5---------8--------|--1--------3--------|
--1--------3--------|--5---------8--------|--1--------3--------|


                                                  bridge                   
                                   NH                                      
  H         H           H          H           E  E      E  E  Q    E  E   
---------------------|----------------------|-----------------------------|
---------------------|----------------------|-----------------------------|
--7--------10--------|-----------<>7--------|-----------------------------|
--5---------8--------|--0----------L--------|--0--0------0--0--0----0--0--|
--5---------8--------|--0----------L--------|--0--0------0--0--0----0--0--|
--5---------8--------|--0----------L--------|--0--0------0--0--0----0--0--|


                            refrain                                  
  E  E  E  E  Q    E  E     H        H           H         H         
-------------------------|--------------------|---------------------|
-------------------------|--------------------|---------------------|
-------------------------|--3--------5--------|--7--------10--------|
--0--0--0--0--0----1--3--|--1--------3--------|--5---------8--------|
--0--0--0--0--0----1--3--|--1--------3--------|--5---------8--------|
--0--0--0--0--0----1--3--|--1--------3--------|--5---------8--------|


                                              outro                   
  H        H           H         H            Q     Q     Q     Q     
--------------------|---------------------|--------------------------|
--------------------|---------------------|--11----10----------11----|
--3--------5--------|--7--------10--------|--------------10----------|
--1--------3--------|--5---------8--------|--------------------------|
--1--------3--------|--5---------8--------|--------------------------|
--1--------3--------|--5---------8--------|--------------------------|


   Q     Q     Q     Q        Q     Q     Q                                     
--------------------------|--------------------|-------|-------|-------|-------|
--10----------13----11----|--10----11----------|-------|-------|-------|-------|
--------10----------------|--------------10----|-------|-------|-------|-------|
--------------------------|--------------------|-------|-------|-------|-------|
--------------------------|--------------------|-------|-------|-------|-------|
--------------------------|--------------------|-------|-------|-------|-------|
Добавлено: 11.09.2013
Другие материалы по этой песне:
  • Аккорды и текст

Страница создана 11.09.2013
http://primanota.ru/misc-unsigned-bands/girugamesh-owari-to-mirai-chords.htm
Привет, Гость.
Предлагаем пройти революционный курс по гитаре.
Подарок от PrimaNota.Ru, забирай!