PrimaNota.ru - самый крупный в мире бесплатный архив песенных текстов, аккордов, табулатур и нот


Misc Unsigned Bands - Gitaroo Man - Twisted Reality - таба

Регистрация Запомнить меня
Войти через:  Facebook Google Twitter Vk Yandex Mail.ru

Misc Unsigned Bands - Gitaroo Man - Twisted Reality - таба

Печатать
Просмотров: 38
-------------------------------------------------------------------------------
                             Twisted Reality - Gitaroo Man
-------------------------------------------------------------------------------
Tabbed by: calumbowen & Xaaxuu

Tuning: Standard

Riffs

  0:08 - 0:23
e|-----------------------------|
B|-----------------------------|
G|--7--7--7--7--9--9--9--7--9--|
D|--7--7--7--7--9--9--9--7--9--|
A|--5--5--5--5--7--7--7--5--7--|
E|-----------------------------|X 5

  0:25 - 0:33
e|-----------------------------12--12--|
B|-----------------------------12--12--|
G|--7--7--7--7--9--9--9--7--9----------|
D|--7--7--7--7--9--9--9--7--9----------|
A|--5--5--5--5--7--7--7--5--7----------|
E|-------------------------------------|X 2

  0:34 - 0:37
e|-----------------------------15--12--|
B|-----------------------------15--12--|
G|--7--7--7--7--9--9--9--7--9----------|
D|--7--7--7--7--9--9--9--7--9----------|
A|--5--5--5--5--7--7--7--5--7----------|
E|-------------------------------------|

  0:38 - 0:44
e|-----------------------------12--12---------------------------|
B|-----------------------------12--12---------------------------|
G|--7--7--7--7--9--9--9--7--9----------7--7--7--7--9--9--9--7--9|
D|--7--7--7--7--9--9--9--7--9----------7--7--7--7--9--9--9--7--9|
A|--5--5--5--5--7--7--7--5--7----------5--5--5--5--7--7--7--5--7|
E|--------------------------------------------------------------|

  0:46 - 1:02
e|----------------------------12--12--12---------------------------15--14--12--|
B|----------------------------12--12--12---------------------------15--14--12--|
G|--7--7--7--7--9--9--9--7--9------------7--7--7--7--9--9--9--7--9-------------|
D|--7--7--7--7--9--9--9--7--9------------7--7--7--7--9--9--9--7--9-------------|
A|--5--5--5--5--7--7--7--5--7------------5--5--5--5--7--7--7--5--7-------------|
E|-----------------------------------------------------------------------------|X2

  1:03 - 1:11
e|-----------------------------|
B|-----------------------------|
G|--7--7--7--7--9--9--9--7--9--|
D|--7--7--7--7--9--9--9--7--9--|
A|--5--5--5--5--7--7--7--5--7--|
E|-----------------------------|X 2


First Solo

This is Panpeus part on each of the solo parts.
Panpeus plays this and you accompany with strumming E.

  1:16 - 1:20
e|---------------------------------|
B|--17--15--17--15--17--15--17~~~~-|
G|---------------------------------|
D|---------------------------------|
A|---------------------------------|
E|---------------------------------|

  1:24 - 1:28
e|------------------|
B|------------------|
G|------------------|
D|--7b--7b--7b~~~~--|
A|------------------|
E|------------------|

  1:33 - 1:37
e|--18--17--15--18--17--15------|
B|--------------------------17--|
G|------------------------------|
D|------------------------------|
A|------------------------------|
E|------------------------------|

  1:41 - 1:45
e|------12---------------|
B|--11------11--8--------|
G|-----------------9-----|
D|--------------------7--|
A|-----------------------|
E|-----------------------|

Back to Riff
  1:46 -1:56
e|-----------------------------|
B|-----------------------------|
G|--7--7--7--7--9--9--9--7--9--|
D|--7--7--7--7--9--9--9--7--9--|
A|--5--5--5--5--7--7--7--5--7--|
E|-----------------------------|X 2


Second Solo

  1:57 - 2:01
e|------12------12------12-----------------|
B|--15------15------15------12--11---------|
G|----------------------------------12--9--|
D|-----------------------------------------|
A|-----------------------------------------|
E|-----------------------------------------|

  2:09 - 2:10
e|--18b--17--15--18b--17--15-----------------|
B|---------------------------17--15--14--12--|
G|-------------------------------------------|
D|-------------------------------------------|
A|-------------------------------------------|
E|-------------------------------------------|

  2:14 - 2:19
e|--17--15--------------------------|
B|----------17--15------------------|
G|------------------16--15----------|
D|--------------------------17--14--|
A|----------------------------------|
E|----------------------------------|

  2:23 - 2:26
e|----------------------17--15--|
B|--15--17----------------------|
G|----------16--15--------------|
D|------------------17----------|
A|------------------------------|
E|------------------------------|

back to riff

  2:27 - 2:58
e|-----------------------------|
B|-----------------------------|
G|--7--7--7--7--9--9--9--7--9--|
D|--7--7--7--7--9--9--9--7--9--|
A|--5--5--5--5--7--7--7--5--7--|
E|-----------------------------|X 8

Last part

  3:00 - 3:15
e|--------------|
B|--------------|
G|--9--7--------|
D|--9--7--7--5--|
A|--7--5--7--5--|
E|--------5--3--|X 4

  3:16 - End
e|-------------|
B|-------------|
G|-------------|
D|-8--7--5--2--|
A|-8--7--5--2--|
E|-6--5--3--0--|

I would like to thank calumbowen at Youtube for this tab,
 his lesson is at http://www.youtube.com/watch?v=VcfALFCQP_8&feature=channel.
This video will explain more.

Any questions or comments go to Xaxu of www.Ulitimate-Guitar.com

| /  slide up
| \  slide down
| h  hammer-on
| p  pull-off
| ~  vibrato
| +  harmonic
| x  Mute note
===============================================================================
Добавлено: 09.08.2013
Другие материалы по этой песне:
  • Аккорды и текст

Страница создана 09.08.2013
http://primanota.ru/misc-unsigned-bands/gitaroo-man-twisted-reality-chords.htm
Привет, Гость.
Предлагаем пройти революционный курс по гитаре.
Подарок от PrimaNota.Ru, забирай!