PrimaNota.ru - самый крупный в мире бесплатный архив песенных текстов, аккордов, табулатур и нот


Misc Unsigned Bands - Fresh Off The Boat - Godly Wonders - таба

Регистрация Запомнить меня
Войти через:  Facebook Google Twitter Vk Yandex Mail.ru

Misc Unsigned Bands - Fresh Off The Boat - Godly Wonders - таба

Печатать
Просмотров: 41
"Godly Wonders" by Fresh Off the Boat (based on God Called in Sick Today by AFI)
Tabbed by Kunal P. (freedoggy77@gmail.com)
Standard tuning

Intro-

e|----------------------------------------------------------------------|
B|----------------------------------------------------------------------|
G|----------------------------------------------------------------------|
D|-------8-------8----8-----7-----7---7-----7-----7---7-----8-----8---8-|
A|-10-10---10-10---10---8-8---8-8---8---5-5---5-5---5---6-6---6-6---6---|
E|----------------------------------------------------------------------|

e|---------------------------------------------------------------------|
B|---------------------------------------------------------------------|
G|------------10-------------------------------------------------------|
D|-------8-------8----8-----7-----7---7---5-7-8-7-5--7-----8-----8---8-|
A|-10-10---10------10---8-8---8-8---8---5----------5---6-6---6-6---6---|
E|---------------------------------------------------------------------|

Verse 1-

e|-------------------------------------------------------------------------|
B|-------------------------------------------------------------------------|
G|-------------------------------------------------------------------------|
D|--8--8--8--8--8--8--8--8-7-7-7-7-7-7-7-7-7-7-7-7-7-7-7-7-8-8-8-8-8-8-8-8-|
A|-10-10-10-10-10-10-10-10-8-8-8-8-8-8-8-8-5-5-5-5-5-5-5-5-6-6-6-6-6-6-6-6-|
E|-------------------------------------------------------------------------|


e|---------------------------------------------------------------------|
B|---------------------------------------------------------------------|
G|-----------------------------------------7-7-7-7-7-7-7-7-8-8-8-8-8-8-|
D|--8--8--8--8--8--8--8--8-7-7-7-7-7-7-7-7-7-7-7-7-7-7-7-7-8-8-8-8-8-8-|
A|-10-10-10-10-10-10-10-10-8-8-8-8-8-8-8-8-5-5-5-5-5-5-5-5-6-6-6-6-6-6-|
E|---------------------------------------------------------------------|

Chorus-

e|------------------------------------------------|
B|------------------------------------------------|
G|------------------------------------------------|
D|-8-8-8--8-8-10-10-10-10-10-5-5-5--5-5-3-3-3-----|
A|-8-8-8--8-8-10-10-10-10-10-5-5-5--5-5-3-3-3-----|
E|-6-6-6--6-6-8--8--8--8--8--3-3-3--3-3-1-1-1 x 2-|


e|-----------------------------|
B|-----------------------------|
G|-----------------------------|
D|-8-8-8--8-8-10-10-10-10-10-5-|
A|-8-8-8--8-8-10-10-10-10-10-5-|
E|-6-6-6--6-6-8--8--8--8--8--3-| (let ring)

Verse 2-

e|----------------------------------------------------------------------|
B|----------------------------------------------------------------------|
G|----------------------------------------------------------------------|
D|-------8-------8----8-----7-----7---7-----7-----7---7-----8-----8---8-|
A|-10-10---10-10---10---8-8---8-8---8---5-5---5-5---5---6-6---6-6---6---|
E|----------------------------------------------------------------------|

e|---------------------------------------------------------------------|
B|---------------------------------------------------------------------|
G|------------10-------------------------------------------------------|
D|-------8-------8----8-----7-----7---7---5-7-8-7-5--7-----8-----8---8-|
A|-10-10---10------10---8-8---8-8---8---5----------5---6-6---6-6---6---|
E|---------------------------------------------------------------------|

e|-------------------------------------------------------------------------|
B|-------------------------------------------------------------------------|
G|-------------------------------------------------------------------------|
D|--8--8--8--8--8--8--8--8-7-7-7-7-7-7-7-7-7-7-7-7-7-7-7-7-8-8-8-8-8-8-8-8-|
A|-10-10-10-10-10-10-10-10-8-8-8-8-8-8-8-8-5-5-5-5-5-5-5-5-6-6-6-6-6-6-6-6-|
E|-------------------------------------------------------------------------|


e|---------------------------------------------------------------------|
B|---------------------------------------------------------------------|
G|-----------------------------------------7-7-7-7-7-7-7-7-8-8-8-8-8-8-|
D|--8--8--8--8--8--8--8--8-7-7-7-7-7-7-7-7-7-7-7-7-7-7-7-7-8-8-8-8-8-8-|
A|-10-10-10-10-10-10-10-10-8-8-8-8-8-8-8-8-5-5-5-5-5-5-5-5-6-6-6-6-6-6-|
E|---------------------------------------------------------------------|

Chorus-

e|------------------------------------------------|
B|------------------------------------------------|
G|------------------------------------------------|
D|-8-8-8--8-8-10-10-10-10-10-5-5-5--5-5-3-3-3-----|
A|-8-8-8--8-8-10-10-10-10-10-5-5-5--5-5-3-3-3-----|
E|-6-6-6--6-6-8--8--8--8--8--3-3-3--3-3-1-1-1 x 2-|


e|-----------------------------|
B|-----------------------------|
G|-----------------------------|
D|-8-8-8--8-8-10-10-10-10-10-5-|
A|-8-8-8--8-8-10-10-10-10-10-5-|
E|-6-6-6--6-6-8--8--8--8--8--3-| (let ring)

Bridge-

e|----------------------------------------------------------------------|
B|----------------------------------------------------------------------|
G|----------------------------------------------------------------------|
D|----------------------------------------------------------------------|
A|-------8-------8----8-----7-----7---7-----7-----7---7-----8-----8---8-|
E|-10-10---10-10---10---8-8---8-8---8---5-5---5-5---5---6-6---6-6---6---|


e|---------------------------------------------------------------------|
B|---------------------------------------------------------------------|
G|---------------------------------------------------------------------|
D|------------10-------------------------------------------------------|
A|-------8-------8----8-----7-----7---7---5-7-8-7-5--7-----8-----8---8-|
E|-10-10---10------10---8-8---8-8---8---5----------5---6-6---6-6---6---|

e|-------------------------------------------------------------------------|
B|-------------------------------------------------------------------------|
G|-------------------------------------------------------------------------|
D|-------------------------------------------------------------------------|
A|--8--8--8--8--8--8--8--8-7-7-7-7-7-7-7-7-7-7-7-7-7-7-7-7-8-8-8-8-8-8-8-8-|
E|-10-10-10-10-10-10-10-10-8-8-8-8-8-8-8-8-5-5-5-5-5-5-5-5-6-6-6-6-6-6-6-6-|


e|---------------------------------------------------------------------|
B|---------------------------------------------------------------------|
G|---------------------------------------------------------------------|
D|-----------------------------------------7-7-7-7-7-7-7-7-8-8-8-8-8-8-|
A|--8--8--8--8--8--8--8--8-7-7-7-7-7-7-7-7-7-7-7-7-7-7-7-7-8-8-8-8-8-8-|
E|-10-10-10-10-10-10-10-10-8-8-8-8-8-8-8-8-5-5-5-5-5-5-5-5-6-6-6-6-6-6-|


e------------------------------------------------------|
B------------------------------------------------------|
G------------------------------------------------------|
D-12-12-12--12-12-10-10-10--10-10-7-7-7--7-7-8-8-8-----|
A-12-12-12--12-12-10-10-10--10-10-7-7-7--7-7-8-8-8-----|
E-10-10-10--10-10-8--8--8---8--8--5-5-5--5-5-6-6-6 x 2-|

Outro-

e-------------------------------------------------------------------------|
B-------------------------------------------------------------------------|
G-------------------------------------------------------------------------|
D-3-3-5--5-5-5-5-5-3-3-8--8-8-8-8-8-3-3-5--5-5-5-5-5--8-8-8-8-8-3-3-3-3-5-|
A-3-3-5--5-5-5-5-5-3-3-8--8-8-8-8-8-3-3-5--5-5-5-5-5--8-8-8-8-8-3-3-3-3-5-|
E-1-1-3--3-3-3-3-3-1-1-6--6-6-6-6-6-1-1-3--3-3-3-3-3--6-6-6-6-6-1-1-1-1-3-|
Добавлено: 11.08.2013
Другие материалы по этой песне:
  • Аккорды и текст

Страница создана 11.08.2013
http://primanota.ru/misc-unsigned-bands/fresh-off-the-boat-godly-wonders-chords.htm
Привет, Гость.
Предлагаем пройти революционный курс по гитаре.
Подарок от PrimaNota.Ru, забирай!