PrimaNota.ru - самый крупный в мире бесплатный архив песенных текстов, аккордов, табулатур и нот


Misc Unsigned Bands - Free Credit Report - Pirate Song - таба, видео

Регистрация Запомнить меня
Войти через:  Facebook Google Twitter Vk Yandex Mail.ru

Misc Unsigned Bands - Free Credit Report - Pirate Song - таба, видео

Печатать
Просмотров: 72
Уроки эстрадного вокала в Санкт-Петербурге
Was so surprised to see no one had put it up so I took 5 minutes to figure it out.  
yet always gets a nice laugh.  Let me know if you found anything that may sound a bit better 
mikegioia91@yahoo.com
Good luck

|---3-----3-----3-----3-----3-----3-----3-----3---------------|
|---3-----3-----3-----3-----3-----3-----3-----3------7-----7--|
|----------------------------------------------------7-----7--|
|-------------------------------------------------------------|
|-------------------------------2-----3-----3-----5-----5-----|
|-3-----3-----3-----3-----3-----------------------------------|


|-------------------------------3------3----------------------|
|----7-----7------7------7------3------3----------------------|
|----7-----7------7------7------------------------------------|
|-------------------------------------------------------------|
|-5------5------5------5--------------------------------------|
|-----------------------------3------3------------------------|
Добавлено: 24.09.2013
Другие материалы по этой песне:
  • Аккорды и текст

Страница создана 24.09.2013
http://primanota.ru/misc-unsigned-bands/free-credit-report-pirate-song-chords.htm
Привет, Гость.
Предлагаем пройти революционный курс по гитаре.
Подарок от PrimaNota.Ru, забирай!