PrimaNota.ru - самый крупный в мире бесплатный архив песенных текстов, аккордов, табулатур и нот


Misc Unsigned Bands - Frank Iero - This Song Is A Curse - таба

Регистрация Запомнить меня
Войти через:  Facebook Google Twitter Vk Yandex Mail.ru

Misc Unsigned Bands - Frank Iero - This Song Is A Curse - таба

Печатать
Просмотров: 184
Frank Iero - This Song is a Curse

Tabbed by: Bruce (MCRFan3341@gmail.com)
Check out my Cover of this song!! You could use it to help you learn the note patterns! ;D

http://www.youtube.com/watch?v=2saltAUi7DY

Hope you enjoy.

One Two Three, One Two Three!

Intro:

|------------------------------------------------------------------|
|------------------------------------------------------------------|
|-12~~-9~~-7-9-10-9-7-5-12~~-9~~-7-9-7-5-7-5-12~~-9~~-7-9-10-9-7-5-|
|------------------------------------------------------------------|
|-10~~-7~~-5-7-8--7-5-3-10~~-7~~-5-7-5-3-5-3-10~~-7~~-5-7-8--7-5-3-|
|------------------------------------------------------------------|

|----------------------------------------------------------|
|----------------------------------------------------------|
|-5-5-5-7-7-7-9-7-7-7-7-7-5-5-5-10-10-10-12-12-12-12-12-12-|
|----------------------------------------------------------|
|-3-3-3-5-5-5-7-5-5-5-5-5-3-3-3-8--8--8--10-10-10-10-10-10-|
|----------------------------------------------------------|

*********************************************************************

Verse 1:

|------------------------------------------------|
|------------------------------------------------|
|------------------------------------------------|
|------------------------------------------------|
|-3~~-3-6~~-6-5~~-5-------3~~-3-6~~-6-5~~-5------|
|-------------------3~~-3-------------------3~~-3|

|---------------------------------------------------|
|---------------------------------------------------|
|---------------------------------------------------|
|---------------------------------------------------|
|-3~~-3---------------------------------------------|
|-------1~~-1-3~~-3-3~~-3-1~~-1-3~~-3-3~~-3-~-3~~-3-|

*********************************************************************

Chorus (Same as intro):

|------------------------------------------------------------------|
|------------------------------------------------------------------|
|-12~~-9~~-7-9-10-9-7-5-12~~-9~~-7-9-7-5-7-5-12~~-9~~-7-9-10-9-7-5-|
|------------------------------------------------------------------|
|-10~~-7~~-5-7-8--7-5-3-10~~-7~~-5-7-5-3-5-3-10~~-7~~-5-7-8--7-5-3-|
|------------------------------------------------------------------|

|----------------------------------------------------------|
|----------------------------------------------------------|
|-5-5-5-7-7-7-9-7-7-7-7-7-5-5-5-10-10-10-12-12-12-12-12-12-|
|----------------------------------------------------------|
|-3-3-3-5-5-5-7-5-5-5-5-5-3-3-3-8--8--8--10-10-10-10-10-10-|
|----------------------------------------------------------|

*********************************************************************

Verse 2:

|------------------------------------------------|
|------------------------------------------------|
|------------------------------------------------|
|------------------------------------------------|
|-3~~-3-6~~-6-5~~-5-------3~~-3-6~~-6-5~~-5------|
|-------------------3~~-3-------------------3~~-3|

*********************************************************************

Bridge:

|-------------------------|
|-------------------------|
|-|W|--5-5----------------|
|-|A|--5-5--4-4--5-5--5-5-|
|-|I|--3-3--4-4--5-5--5-5-|
|-|T}-------2-2--3-3--3-3-|

*********************************************************************

Chorus:

|------------------------------------------------------------------|
|------------------------------------------------------------------|
|-12~~-9~~-7-9-10-9-7-5-12~~-9~~-7-9-7-5-7-5-12~~-9~~-7-9-10-9-7-5-|
|------------------------------------------------------------------|
|-10~~-7~~-5-7-8--7-5-3-10~~-7~~-5-7-5-3-5-3-10~~-7~~-5-7-8--7-5-3-|
|------------------------------------------------------------------|

|----------------------------------------------------------|
|----------------------------------------------------------|
|-5-5-5-7-7-7-9-7-7-7-7-7-5-5-5-10-10-10-12-12-12-12-12-12-|
|----------------------------------------------------------|
|-3-3-3-5-5-5-7-5-5-5-5-5-3-3-3-8--8--8--10-10-10-10-10-10-|
|----------------------------------------------------------|

*********************************************************************

Interlude (More clean):

|----------------------------------------------------|
|----------------------------------------------------|
|-4-4-4-4-4-4-4-4-4-4-4-4----------------------------|
|-------------------------5-5-5-5-5-5-5-5-5-5-5-5----|
|-6-6-6-6-6-6-6-6-6-6-6-6----------------------------|
|-------------------------3-3-3-3-3-3-3-3-3-3-3-3----|

|-------------------------------------|
|-------------------------------------|
|-10-10-10-10-10-10-10-10-10-10-10-10-|
|-------------------------------------|
|-8--8--8--8--8--8--8--8--8--8--8--8--|
|-------------------------------------|

|-------------------------------------|
|-------------------------------------|
|-12-12-12-12-12-12-12-12-12-12-12-12-|
|-------------------------------------|
|-10-10-10-10-10-10-10-10-10-10-10-10-|
|-------------------------------------|

*********************************************************************

SOLO:

|------------------------------------|
|------------------------------------|
|------------------------------------|
|------------------------------------|
|-10~~-7~~-5~~-5~~-10~~-12~~-5~~-5~~-|
|------------------------------------|

|-------------------------------------------|
|-------------------------------------------|
|-------------------------------------------|
|-----------------9-9-9-5-5-5-7-7-7-9-10-12-|
|-------------------------------------------|
|-8~~-5~~-3~~-3~~-7-7-7-3-3-3-5-5-5-7-8--10-|

*********************************************************************

Chorus:

|------------------------------------------------------------------|
|------------------------------------------------------------------|
|-12~~-9~~-7-9-10-9-7-5-12~~-9~~-7-9-7-5-7-5-12~~-9~~-7-9-10-9-7-5-|
|------------------------------------------------------------------|
|-10~~-7~~-5-7-8--7-5-3-10~~-7~~-5-7-5-3-5-3-10~~-7~~-5-7-8--7-5-3-|
|------------------------------------------------------------------|

|---------------------------------------|
|---------------------------------------|
|-5-5-5-7-7-7-9-7-7-7-7-7-5~~-10~~-12~~-|
|---------------------------------------|
|-3-3-3-5-5-5-7-5-5-5-5-5-3~~-8~~--10~~-|
|---------------------------------------|

*********************************************************************

Ending:

|---------------------|
|---------------------|
|-9~~-10~~-12~~~~~~~~-|
|---------------------|
|-7~~-8~~--10~~~~~~~~-|
|---------------------|
Добавлено: 22.06.2013
Другие материалы по этой песне:
  • Аккорды и текст

Страница создана 22.06.2013
http://primanota.ru/misc-unsigned-bands/frank-iero-this-song-is-a-curse-chords.htm
Привет, Гость.
Предлагаем пройти революционный курс по гитаре.
Подарок от PrimaNota.Ru, забирай!