PrimaNota.ru - самый крупный в мире бесплатный архив песенных текстов, аккордов, табулатур и нот


Misc Unsigned Bands - Gematria - The Hatred Inside - таба

Регистрация Запомнить меня
Войти через:  Facebook Google Twitter Vk Yandex Mail.ru

Misc Unsigned Bands - Gematria - The Hatred Inside - таба

Печатать
Просмотров: 51
 ---------------------------------------------------------------------------
      The Hatred Inside - GemAtria
 ---------------------------------------------------------------------------


 Tuning: Drop B

 Guitar One

     INTRO/PRE VERSE
 e|-------------------------------------------------------------------------|
 B|-------------------------------------------------------------------------|
 G|-------------------------------------------------------------------------|
 D|-0-0-3-0-0-5-0-0-7-0-0-7-0-0-----0-0-1-0-0-3-0-0-7-0-0-5-0-0-------------|
 A|-0-0-1-0-0-3-0-0-5-0-0-7-0-0-----0-0-1-0-0-3-0-0-7-0-0-5-0-0-------------|
 E|-0-0-1-0-0-3-0-0-5-0-0-7-0-0-9b--0-0-1-0-0-3-0-0-7-0-0-5-0-0-9b----------|
    x5

    VERSE
 e|-------------------------------------------------------------------------|
 B|-------------------------------------------------------------------------|
 G|-------------------------------------------------------------------------|
 D|-0-0-1-0-0-3-0-0-5----0-0-1-0-0-5-0-0-3----------------------------------|
 A|-0-0-1-0-0-3-0-0-5----0-0-1-0-0-5-0-0-3----------------------------------|
 E|-0-0-1-0-0-3-0-0-5----0-0-1-0-0-5-0-0-3----------------------------------|
    . . . . . . . . .    . . . . . . . . .
    x4
 e|-------|
 B|-------|
 G|-------|
 D|-0-0-0-|
 A|-0-0-0-|
 E|-0-0-0-|
    . . .

    PRE CHORUS
 e|-------------------------------------------------------------------------|
 B|-------------------------------------------------------------------------|
 G|-------------------------------------------------------------------------|
 D|-0-0-1-0-0-3-0-0-5-0-0-0--0-0-1-0-0-5-0-0-3-0-0-0------------------------|
 A|-0-0-1-0-0-3-0-0-5-0-0-0--0-0-1-0-0-5-0-0-3-0-0-0------------------------|
 E|-0-0-1-0-0-3-0-0-5-0-0-0--0-0-1-0-0-5-0-0-3-0-0-0------------------------|
    . . . . . . . . . . . .  . . . . . . . . . . . .
    x2

    CHORUS
 e|-------------------------------------------------------------------------|
 B|-------------------------------------------------------------------------|
 G|-------------------------------------------------------------------------|
 D|-5-5-5-5-5-5-5-5-8-8-8-8-7-7-7-7-8-8-8-8-8-8-8-8-11-11-11-11-10-10-10-10-|
 A|-5-5-5-5-5-5-5-5-5-5-5-5-5-5-5-5-8-8-8-8-8-8-8-8--8--8--8--8--8--8--8--8-|
 E|-5-5-5-5-5-5-5-5-5-5-5-5-5-5-5-5-8-8-8-8-8-8-8-8--8--8--8--8--8--8--8--8-|

 e|-------------------------------------------------------------------------|
 B|-------------------------------------------------------------------------|
 G|-------------------------------------------------------------------------|
 D|-3-3-3-3-3-3-3-3-5-5-5-5-6-6-6-6-5-5-5-5-5-5-5-5-8-8-8-8-7-7-7-7---------|
 A|-3-3-3-3-3-3-3-3-3-3-3-3-3-3-3-3-5-5-5-5-5-5-5-5-5-5-5-5-5-5-5-5---------|
 E|-3-3-3-3-3-3-3-3-3-3-3-3-3-3-3-3-5-5-5-5-5-5-5-5-5-5-5-5-5-5-5-5---------|
    x2

 e|--------------------|
 B|--------------------|
 G|--------------------|
 D|-5--------------/10-| 
 A|-5-(HOLD)-------/10-|
 E|-5--------------/10-|
   
   BRIDGE
 e|-------------------------------------------------------------------------|
 B|-------------------------------------------------------------------------|
 G|-------------------------------------------------------------------------|
 D|-----------0-0-1-0-0-5-0-0-3--------------------0-0-1-0-0-5-0-0-3--------|
 A|-----------0-0-1-0-0-5-0-0-3--------------------0-0-1-0-0-5-0-0-3--------|
 E|-----------0-0-1-0-0-5-0-0-3--------------------0-0-1-0-0-5-0-0-3--------|
              . . . . . . . . .                    . . . . . . . . .

 e|-------|
 B|-------|
 G|-------|
 D|-0-0-0-|
 A|-0-0-0-|
 E|-0-0-0-|
    . . .
    
   BREAKDOWN
 e|-------------------------------------------------------------------------|
 B|-------------------------------------------------------------------------|
 G|-------------------------------------------------------------------------|
 D|-0-0-1-0-0-3-0-0-5-0-0-0--0-0-1-0-0-5-0-0-3-0-0-0------------------------|
 A|-0-0-1-0-0-3-0-0-5-0-0-0--0-0-1-0-0-5-0-0-3-0-0-0------------------------|
 E|-0-0-1-0-0-3-0-0-5-0-0-0--0-0-1-0-0-5-0-0-3-0-0-0------------------------|
    . . . . . . . . . . . .  . . . . . . . . . . . .
    x2

 e|-------------------------------------------------------------------------|
 B|-------------------------------------------------------------------------|
 G|-------------------------------------------------------------------------|
 D|-0-0-1-0-0-3-0-0-5-0-0-0--0-0-1-0-0-5-0-0-3-0-0-0------------------------|
 A|-0-0-1-0-0-3-0-0-5-0-0-0--0-0-1-0-0-5-0-0-3-0-0-0------------------------|
 E|-0-0-1-0-0-3-0-0-5-0-0-0--0-0-1-0-0-5-0-0-3-0-0-0------------------------|
                      . . .                    . 
    x2
    
    FINAL CHORUS
 e|------------------------------------------------------------------------|
 B|------------------------------------------------------------------------|
 G|------------------------------------------------------------------------|
 D|-5------------------------------8-8-8-8-8-8-8-8-11-11-11-11-10-10-10-10-|
 A|-5-(HOLD)-----------------------8-8-8-8-8-8-8-8--8--8--8--8--8--8--8--8-|
 E|-5------------------------------8-8-8-8-8-8-8-8--8--8--8--8--8--8--8--8-|

 e|-------------------------------------------------------------------------|
 B|-------------------------------------------------------------------------|
 G|-------------------------------------------------------------------------|
 D|-3-3-3-3-3-3-3-3-5-5-5-5-6-6-6-6-5-5-5-5-5-5-5-5-8-8-8-8-7-7-7-7---------|
 A|-3-3-3-3-3-3-3-3-3-3-3-3-3-3-3-3-5-5-5-5-5-5-5-5-5-5-5-5-5-5-5-5---------|
 E|-3-3-3-3-3-3-3-3-3-3-3-3-3-3-3-3-5-5-5-5-5-5-5-5-5-5-5-5-5-5-5-5---------|
    



 e|---|
 B|---|
 G|---|
 D|-0-|   END ON
 A|-0-|
 E|-0-|
    
  INTRO
  VERSE
  PRE CHORUS
  CHORUS
  PRE VERSE
  VERSE
  PRE CHORUS
  CHORUS
  BRIDGE
  BREAKDOWN
  PRE CHORUS
  CHORUS
  CHORUS 2
  PRE VERSE
  END




 ************************************
 | .   palm mute
 | /   slide up
 | \   slide down
 | h   hammer-on
 | p   pull-off
 | ~   vibrato
 | +   harmonic
 | x   Mute note
 | b   Bend
 | pb  Pre-bend
 | br  Bend release
 | pbr Pre-bend release
 | brb Bend release bend

 ************************************
Добавлено: 29.10.2013
Другие материалы по этой песне:
  • Аккорды и текст

Страница создана 29.10.2013
http://primanota.ru/misc-unsigned-bands/gematria-the-hatred-inside-chords.htm
Привет, Гость.
Предлагаем пройти революционный курс по гитаре.
Подарок от PrimaNota.Ru, забирай!