PrimaNota.ru - самый крупный в мире бесплатный архив песенных текстов, аккордов, табулатур и нот


Misc Unsigned Bands - Four Minute Mile - Indian Summer - таба

Регистрация Запомнить меня
Войти через:  Facebook Google Twitter Vk Yandex Mail.ru

Misc Unsigned Bands - Four Minute Mile - Indian Summer - таба

Печатать
Просмотров: 49
Tabbed By: Sean Wallner
Band: Four Minute Mile
Song: Indian Summer
Album: Indian Summer EP
Label:


Intro:
d|---------|
a|---------|
f|-99999XX-|
c|-77777xx-|
g|-99999xx-|
D|---------|
 |
d|---------|
a|---------|
f|---------|
c|---------|
g|---------|
D|---------|



Pre-Verse:                   X4
d|----------------------------|
a|----------------------------|
f|-9~9X4~4X4~4444444444444444-|
c|-7~7X2~2X2~2222222222222222-|
g|-9~9X4~4X0~0000000000000000-|
D|----------------------------|
 |                           X3                           X1
d|----------------------------|----------------------------|
a|----------------------------|----------------------------|
f|-9~9X4~4X4~44~~~44~~~44~~~~-|-9~9X4~4X4~44~~~44~~4444444-|
c|-7~7X2~2X22~~~~2~~~~2~~~~2~-|-7~7X2~2X22~~~~2~~~~2222222-|
g|-9~9X4~4X0~~~~0~~~~0~~~~0~0-|-9~9X4~4X0~~~~0~~~~~0000000-|
D|----------------------------|----------------------------|



1st Verse:                                                  X4
d|-----------------------------------------------------------|
a|-----------------------------------------------------------|
f|-2-2-2-6-6-6-4-4-4-6-6-6-7-7-6-6-2-2-2-6-6-6-6-6-6-4-4-----|
c|-2-2-2-6-6-6-4-4-4-6-6-6-7-7-6-6-2-2-2-6-6-6-6-6-6-4-4-6-6-|
g|-0-0-0-4-4-4-2-2-2-4-4-4-5-5-4-4-0-0-0-4-4-4-4-4-4-2-2-6-6-|
D|-------------------------------------------------------4-4-|
 | * * * * * * * * * * * * * * * * * * * * * * * * * * *    X4
d|-----------------------------------------------------------|
a|-----------------------------------------------------------|
f|-----------------------------------------------------------|
c|-------------------------------------------------------6-6-|
g|-------------------------------------------------------6-6-|
D|-------------------------------------------------------4-4-|



Post-1st Verse:               X2
d|-----------------------------|
a|-----------------------------|
f|------66-6-666-44-4-44-4-666-|
c|-77-7-66-6-666-44-4-44-4-666-|
g|-77-7-44-4-444-22-2-22-2-444-|
D|-55-5------------------------|
 |                            X2
d|-----------------------------|
a|-----------------------------|
f|-22-2-66-6-666-44-4-44-4-666-|
c|-22-2-66-6-666-44-4-44-4-666-|
g|-00-0-44-4-444-22-2-22-2-444-|
D|-----------------------------|



                      X1
d|---------------------|
a|---------------------|
f|-2~~~~~~~~~~~~~~-2~~-|
c|-2~~~~~~~~~~~~~~-2~~-|
g|-0~~~~~~~~~~~~~~-0~~-|
D|---------------------|
 |                    X1
d|---------------------|
a|---------------------|
f|-2~~~~~~~~~~~~~~-2~~-|
c|-2~~~~~~~~~~~~~~-2~~-|
g|-0~~~~~~~~~~~~~~-0~~-|
D|---------------------|



Pre-Chorus:                     X3                              X1
d|-------------------------------|-------------------------------|
a|-------------------------------|-------------------------------|
f|-2-2-2-----------------7-7-7-7-|-2-2-2-----------------7-7-7-7-|
c|-2-2-2-4-4--4-4-4-2-2--7-7-7-7-|-2-2-2-4-4--4-4-4-2-2----------|
g|-0-0-0-4-4--4-4-4-2-2--5-5-5-5-|-0-0-0-4-4--4-4-4-2-2----------|
D|-------2-2--2-2-2-0-0----------|-------2-2--2-2-2-0-0----------|
 |                              X2                                              X1
d|-------------------------------|-000000000000000000000000000~-0-0-0-0-0--00000-|
a|-------------------------------|-1010109~9~~9~9~9~9~9~9~10p9~-1010101010-99999-|
f|-2-2-2-----------------7-7-7-7-|-----------------------------------------------|
c|-2-2-2-4-4--4-4-4-2-2--7-7-7-7-|-----------------------------------------------|
g|-0-0-0-4-4--4-4-4-2-2--5-5-5-5-|-----------------------------------------------|
D|-------2-2--2-2-2-0-0----------|-----------------------------------------------|



Chorus:     X2                                                                X2
d|-----------|-----------------------------------------------------------------|
a|-----------|-----------------------------------------------------------------|
f|-2-----4-7-|-----------------------------------------------------------------|
c|-2-4-2-4-7-|-------9-9-9-7-7-7-7-7-7-7-7-7-7-------9-9-9-7-7-7-7-7-7-6h7-6h7-|
g|-0-4-2-2-5-|-7-7-7---------------------------7-7-7---------------------------|
D|---2-0-----|-----------------------------------------------------------------|
 |          X4
d|-----------|
a|-----------|
f|-2-----4-7-|
c|-2-4-2-4-7-|
g|-0-4-2-2-5-|
D|---2-0-----|



2nd Verse:                       X2                 X2
d|--------------------------------|------------------|
a|--------------------------------|------------------|
f|-----9-6~~-------6~~~----9~~~~~-|-2--6--7--6/7\6\4-|
c|---7~~~----7b------7-------7~~~-|-2--6--7--X/X\X\X-|
g|-0~~~----------4~~~~-7/9~~~~-9~-|-0--4--5--4/5\4\2-|
D|--------------------------------|------------------|
 |                 X4
d|------------------|
a|------------------|
f|-2--6--7--6/7\6\4-|
c|-2--6--7--X/X\X\X-|
g|-0--4--5--4/5\4\2-|
D|------------------|



Post 2nd Verse:                X1
d|------------------------------|
a|------------------------------|
f|------------------------------|
c|------------------------------|
g|------------------------------|
D|------------------------------|
 |                             X1
d|------------------------------|
a|------------------------------|
f|-2222222222222222666666777777-|
c|-2222222222222222666666777777-|
g|-0000000000000000444444555555-|
D|------------------------------|
   ****************************


Pre-Chorus:                       X2                                                  X1
d|---------------------------------|---------------------------------------------------|
a|---------------------------------|---------------------------------------------------|
f|-2-2-2-------------------7-7-7-7-|-2--------------4----7777--2------------------7777-|
c|-2-2-2-4-4---4-4-4-2-2---7-7-7-7-|-2----4----2----4----7777--2----4----4----22-------|
g|-0-0-0-4-4---4-4-4-2-2---5-5-5-5-|-0----4----2----2----5555--0----4----4----22-------|
D|-------2-2---2-2-2-0-0-----------|------2----0--------------------2----2----00-------|
 |
d|---------------------------------|---------------------------------------------------|
a|---------------------------------|---------------------------------------------------|
f|-2-2-2-------------------7-7-7-7-|-2--------------4----7777--2-----------------------|
c|-2-2-2-4-4---4-4-4-2-2---7-7-7-7-|-2----4----2----4----7777--2----4----4----22-------|
g|-0-0-0-4-4---4-4-4-2-2---5-5-5-5-|-0----4----2----2----5555--0----4----4----22-------|
D|-------2-2---2-2-2-0-0-----------|------2----0--------------------2----2----00-------|



Chorus:                      X1                     X1
d|----------------------------|----------------------|
a|----------------------------|----------------------|
f|-2-----4-7--2-----4-7777777-|-2-----4-7--2-----4-7-|
c|-2-4-2-4-7--2-4-2-4-7777777-|-2-4-2-4-7--2-4-2-4-7-|
g|-0-4-2-2-5--0-4-2-2-5555555-|-0-4-2-2-5--0-4-2-2-5-|
D|---2-0--------2-0-----------|---2-0--------2-0-----|
 |                           X1                     X1
d|----------------------------|----------------------|
a|----------------------------|----------------------|
f|-2-----4-7--2-----4-7777777-|-2-----4-7--2-----4-7-|
c|-2-4-2-4-7--2-4-2-4-7777777-|-2-4-2-4-7--2-4-2-4-7-|
g|-0-4-2-2-5--0-4-2-2-5555555-|-0-4-2-2-5--0-4-2-2-5-|
D|---2-0--------2-0-----------|---2-0--------2-0-----|



Pre-Bridge:      X1
d|----------------|
a|----------------|
f|--2~~-4~~-9~~~~-|
c|--2~~-X~~-7~~~~-|
g|--0~~-2~~-5~~~~-|
D|----------------|
 |               X1
d|----------------|
a|----------------|
f|--2~~-4~~-7~~~~-|
c|--2~~-4~~-7~~~~-|
g|--0~~-2~~-5~~~~-|
D|----------------|



Bridge:                                            X2
d|--------------------------------------------------|
a|--------------------------------------------------|
f|-----6~~~------6~~~~----9~~~~~9~~~~----9~~~6h7p6~-|
c|---7~~~~~--7~~~~~7~~--------7~~~7~~--7~~~7~~~~~~~-|
g|-0~~~~~~~0~~~0~~~~~~7/9~~~7~~~~~~~~5~~~~~~~~~~~~~-|
D|--------------------------------------------------|
 |                                                 X2
d|--------------------------------------------------|
a|--------------------------------------------------|
f|-2~~~~~~~~~~~~~~~~~~~~~~~~~~~~~~~~~~~~~~~~~~~~~~~-|
c|-2~~~~~~~~~~~~~~~~~~~~~~~~~~~~~~~~~~~~~~~~~~~~~~~-|
g|-0~~~~~~~~~~~~~~~~~~~~~~~~~~~~~~~~~~~~~~~~~~~~~~~-|
D|--------------------------------------------------|



Outro:
d|--------------------------------------------------------------------------|
a|--------------------------------------------------------------------------|
f|-6~~~~~6~6~~~~~6~6~~~~~6~6~~~~~6~6~~6~~6~6~~6~~6~6~~6~~6~6~66666666666666-|
c|-7~~~~~7~7~~~~~7~7~~~~~7~7~~~~~7~7~~7~~7~7~~7~~7~7~~7~~7~7~77777777777777-|
g|-0~~~~~0~9~~~~~9~7~~~~~9~5~~~~~5~0~~0~~0~9~~9~~9~7~~7~~9~0~00000000000000-|
D|--------------------------------------------------------------------------|
 |
d|-0'''''''0'''''''0'''''''0'''''''0'''''''0'''''''0'''''''0'''''''''''''''-|
a|-10''''''9'''''''7'''''''5'''''''10''''''9'''''''7'''''''5'''''''''''''''-|
f|--------------------------------------------------------------------------|
c|--------------------------------------------------------------------------|
g|--------------------------------------------------------------------------|
D|--------------------------------------------------------------------------|



Endind:                                  X2
d|----------------------------------------|
a|----------------------------------------|
f|-----6~~~~----9p6~~----6~~~~----9p6~~~~-|
c|---7~~~~~~--7~~~~~~--7~~~~~~--7~~~~~9~~-|
g|-0~~~~~~~~5~~~~~~~~0~~~~~~~~5~~~~~~~~~~-|
D|----------------------------------------|
 |
d|----------------------------------------|
a|----------------------------------------|
f|----------------------------------------|
c|----------------------------------------|
g|----------------------------------------|
D|----------------------------------------|





d|----------|
a|----------|
f|- SEAN'S -|
c|- GUITAR -|
g|----------|
D|----------|
 |
d|--------------|
a|--------------|
f|-- WILLIAM'S -|
c|--- GUITAR ---|
g|--------------|
D|--------------|

TAB KEY
____________________
~ = Let Note Ring   |
                    |
' = Tremelo Picking |
                    |
\ = Slide Down Neck |
                    |
/ = Slide Up Neck   |
                    |
h = Hammer On       |
                    |
p = Pull Off        |
                    |
b = Bend String     |
                    |
x = chugs           |
                    |
* = Palm Mute       |
____________________|
Добавлено: 23.06.2013
Другие материалы по этой песне:
  • Аккорды и текст

Страница создана 23.06.2013
http://primanota.ru/misc-unsigned-bands/four-minute-mile-indian-summer-chords.htm
Привет, Гость.
Предлагаем пройти революционный курс по гитаре.
Подарок от PrimaNota.Ru, забирай!