PrimaNota.ru - самый крупный в мире бесплатный архив песенных текстов, аккордов, табулатур и нот


Misc Unsigned Bands - Fixed - Please - таба, видео

Регистрация Запомнить меня
Войти через:  Facebook Google Twitter Vk Yandex Mail.ru

Misc Unsigned Bands - Fixed - Please - таба, видео

Печатать
Просмотров: 63
Уроки эстрадного вокала в Санкт-Петербурге
hey dudes
this is my second tab
i played super crazy guitar 2 n i love this song

tab by flamolo

tuning:standard
song:please
band:fixed

h:hammer on
x:string mute
v:vibrato

gtr1 4x (0:00)
e --------------------------------------------|
B --5-5-3-3---5-5-3-3----5-5-3-3---0-0-1-1----|
G --------------------------------------------|
D ---3---3-3---3---3-3----2---2-2---2---2-2---|
A --------------------------------------------|
E --------------------------------------------|

gtr2 (0:15)
e --------------------------------------------|
B --8-5-6-5--8-5-6-5---6-5-3----------3-------|
G ----------------------0-0-0-5-4h5-x--5-4-4--|
D --------------------------------------------|
A --------------------------------------------|
E --------------------------------------------|

e ----------------------------------------------|
B --8-5-6-5--8-10-5-6---6-5-3-8---------3-------|
G -----------------------0-0-0-0--4h5-x--5-4-4--|
D ----------------------------------------------|
A ----------------------------------------------|
E ----------------------------------------------|

gtr1 (0:30)
e ----------------------------------------------|
B ----------------------------------------------|
G --777-55555-444-55555-------------------------|
D --777-55555-444-55555-------------------------|
A --555-33333-222-33333-------------------------|
E ----------------------------------------------|

gtr2  (0:30)
e ------------------------------------------------------------|
B ------------------------------------------------------------|
G ------------------------------------------------------------|
D --333333-555555-777777-999999-333333-555555-777777-999999---|
A --333333-555555-777777-999999-333333-555555-777777-999999---|
E --111111-333333-555555-777777-111111-333333-555555-777777---|

e -----------------------------------------------------------|
B -----------------------------------------------------------|
G ----------------222222-444444---------------222222-444444--|
D --333333-555555-222222-444444-333333-555555-222222-444444--|
A --333333-555555-000000-222222-333333-555555-000000-222222--|
E --111111-333333---------------111111-333333----------------|

theres a piano part
it sounds like this
  (0:49)
e -----------------------------------------------------|
B --12-13-12-8-5-8-12-88-13v-12-13-12-8-5-8-12-88-15v--|
G -----------------------------------------------------|
D -----------------------------------------------------|
A -----------------------------------------------------|
E -----------------------------------------------------|

e -----------------------------|
B --12-13-12-8-5-8-12-88-13v---|
G -----------------------------|
D -----------------------------|
A -----------------------------|
E -----------------------------|

end with:

gtr1
e -----------|
B -----------|
G --7--------|
D --7--------|
A --5--------|
E -----------|

gtr2
e ----------|
B ----------|
G --5-------|
D --5-------|
A --3-------|
E ----------|
Добавлено: 05.11.2013
Другие материалы по этой песне:
  • Аккорды и текст

Страница создана 05.11.2013
http://primanota.ru/misc-unsigned-bands/fixed-please-chords.htm
Привет, Гость.
Предлагаем пройти революционный курс по гитаре.
Подарок от PrimaNota.Ru, забирай!