PrimaNota.ru - самый крупный в мире бесплатный архив песенных текстов, аккордов, табулатур и нот


Misc Unsigned Bands - Fleet Foxes - Mykonos - таба

Регистрация Запомнить меня
Войти через:  Facebook Google Twitter Vk Yandex Mail.ru

Misc Unsigned Bands - Fleet Foxes - Mykonos - таба

Печатать
Просмотров: 76
-------------------------------------------------------------------------------
                             MYKONOS - Fleet Foxes
-------------------------------------------------------------------------------

Official band website: http://www.myspace.com/fleetfoxes

Tabbed by: craig
Email: when_you_dance@hotmail.co.uk

Tuning: standard
Chords:

C#m     - x46654
B       - x24442        
A       - x02220
F#m     - 244222
A/G     - 402220


INTRO

e|---------------------------------------|
B|--5---4---2---0---2---5---4------------|
G|----6---4---2---1---2---6---4-4--------|    x2
D|-------------------------------4-------|
A|---------------------------------------|
E|---------------------------------------|

THEN THIS IS PLAYED OVER THE VERSE

e|-------------------------------------------------------------------|
B|--5---5---4---4---2---2---4---4---2---2----4---4---5---5--5---5----|
G|----6---6---4---4---2---2---4---4----2---2----4---4--6---6---6--6--|
D|-------------------------------------------------------------------|
A|-------------------------------------------------------------------|
E|-------------------------------------------------------------------|


    C#m         B       A         B    A   B      C#m
The door slam loud and rows up a cloud of dust on us
 C#m         B      A                 B   A     B    C#m
Footsteps follow, down through the hollow sound, torn up

    F#m                         C#m 
And you will go to Mykonos
         F#m                    C#m
With a vision of a gentle coast
      F#m                       C#m
And a sun to maybe dissipate
       B                 A
Shadows of the mess you made


instrumental 
(C#m         B       A         B    A   B      C#m) x 2

 C#m         B            A            B  A  B  C#m
How did any holes in the snow tipped pines, I find
C#m        B        A           B        A   B  C#m
Hatching from the seed of your thin mind, all night?

    F#m                         C#m 
And you will go to Mykonos
         F#m                    C#m
With a vision of a gentle coast
      F#m                       C#m
And a sun to maybe dissipate
       B                      A
Shadows of the mess you made


instrumental 
(C#m         B       A         B    A   B      C#m) x 2

F#m   C#m B A (?) x 3
oohh  ooohh
B       A
oohh    ooh ooh ooh

C#m                 B               A
Brother you don't need to turn me away
         C#m        B               A
I was waiting down at the ancient gate

F#m
You go
B                      A A/G
Wherever you go today
F#m       B            A A/G
You go today

C#m                   B        A
I remember how they took you down
C#m                        B      A
As the winter turned the meadow brown

F#m
You go
B                      A A/G
Wherever you go today
F#m       B            A A/G
You go today



C#m                      B         A
When I walking brother don't you forget
C#m                         B        A
It ain't often you'll ever find a friend

F#m
You go
B                      A A/G
Wherever you go today
F#m       B            A A/G
You go today

[To fade]


| /  slide up
| \  slide down
| h  hammer-on
| p  pull-off
| ~  vibrato
| +  harmonic
| x  Mute note
===============================================================================

Enjoy!
Добавлено: 14.09.2013
Другие материалы по этой песне:
  • Аккорды и текст

Страница создана 14.09.2013
http://primanota.ru/misc-unsigned-bands/fleet-foxes-mykonos-chords.htm
Привет, Гость.
Предлагаем пройти революционный курс по гитаре.
Подарок от PrimaNota.Ru, забирай!