PrimaNota.ru - самый крупный в мире бесплатный архив песенных текстов, аккордов, табулатур и нот


Misc Unsigned Bands - Eddie Dimas - Maria Elena - таба

Регистрация Запомнить меня
Войти через:  Facebook Google Twitter Vk Yandex Mail.ru

Misc Unsigned Bands - Eddie Dimas - Maria Elena - таба

Печатать
Просмотров: 76
Title: Maria Elena
SubTitle: Tab by Jay Juarez
Artist: Eddie Dimas
Album: El Mosquito
Copyright: 2013
Tempo = 62
Electric Guitar



E |----------------------------------------|
B |--------2s-10L10-10-9L-9--10-9L-9--7L---|
G |----------------------------------------|
D |----------------------------------------|
A |----------------------------------------|
E |----------------------------------------|


----------------------------------------------------|
--7--10-------------------------------------1-------|
----------------------------------------------------|
----------------------------------------------------|
----------------------------------------------------|
----------------------------------------------------|


-----------------4--4--3----|
--2--5s-------------5--4----|
----------------------------|
----------------------------|
----------------------------|
----------------------------|


--2-----------------------------------------------------2-------------------|
--3-----------------------------------3-----------------------3-------------|
-----------------------------4--------------------------------------4-------|
----------------------------------------------------------------------------|
----------------------------------------------------------------------------|
----------------------------------------------------------------------------|


--2--7s----------------7--6--7--------6-----5-------|
----------------------------------------------------|
----------------------------------------------------|
----------------------------------------------------|
----------------------------------------------------|
----------------------------------------------------|


--4-------------------------|----------------------------|
----------------------------|--5--9s----------5--9s-1----|
--------------------3--4----|----------------------------|
----------------------------|----------------------------|
----------------------------|----------------------------|
----------------------------|----------------------------|


--------------------------------------------------------------------------8-----|
--2-----------------5s----------------------------10----------12----------------|
--------------------------------------9-----------------------------------------|
--------------------------------------------------------------------------------|
--------------------------------------------------------------------------------|
--------------------------------------------------------------------------------|


---9--------7--------5----------------------------------------------|
------------------------------7--------5--------7--------8s---------|
--------------------------------------------------------------------|
--------------------------------------------------------------------|
--------------------------------------------------------------------|
--------------------------------------------------------------------|


----------------------------------------------------------------------------|
--7s-------5--------2--------2-----1-----2--------------5--------14L--------|
----------------------------------------------------------------------------|
----------------------------------------------------------------------------|
----------------------------------------------------------------------------|
----------------------------------------------------------------------------|


----------------------------------------------------------------------------|
--14-------14----------------------------------9--------12----9-----10------|
----------------------------------------------------------------------------|
----------------------------------------------------------------------------|
----------------------------------------------------------------------------|
----------------------------------------------------------------------------|


----------------------------------------------------|
--10-------------------------------------------7----|
--------------------------------------6--7--9-------|
--------------------------7--6--7--9----------------|
----------------------------------------------------|
----------------------------------------------------|


-----------------------------------------------4--------5-----4-----2-------|
--7--------9s---------------------------------------------------------------|
----------------------------------------------------------------------------|
----------------------------------------------------------------------------|
----------------------------------------------------------------------------|
----------------------------------------------------------------------------|


--2-------------------------------------------------|
--3--------------------0--2--0--2-----2--3--5--7----|
-----------------------------------4----------------|
----------------------------------------------------|
----------------------------------------------------|
----------------------------------------------------|


----------------------------------------------------------------------------|
--7--------12s---------------------------------9--------9--10-9--7----------|
----------------------------------------------------------------------------|
----------------------------------------------------------------------------|
----------------------------------------------------------------------------|
----------------------------------------------------------------------------|


----------------------------------------------------|
--9-----------------------------2--3--2-----2--3----|
-----------------------------------------4----------|
----------------------------------------------------|
----------------------------------------------------|
----------------------------------------------------|


--------------------0-------|
--5-----7--9s----------2----|
----------------------------|
----------------------------|
----------------------------|
----------------------------|


--0-------------------------------------------------------------------------|
-----------2s-------10L---10----10----9L----9-----10----9L----9-----7L------|
----------------------------------------------------------------------------|
----------------------------------------------------------------------------|
----------------------------------------------------------------------------|
----------------------------------------------------------------------------|


----------------------------------------------------|
--7--10-------------------------------------1-------|
----------------------------------------------------|
----------------------------------------------------|
----------------------------------------------------|
----------------------------------------------------|


-----------------4--4--3----|
--2--5s-------------5--4----|
----------------------------|
----------------------------|
----------------------------|
----------------------------|


--2-----------------------------------------------------2-------------------|
--3-----------------------------------3-----------------------3-------------|
-----------------------------4--------------------------------------4-------|
----------------------------------------------------------------------------|
----------------------------------------------------------------------------|
----------------------------------------------------------------------------|


--2--7s----------------7--6--7--------6-----5-------|
----------------------------------------------------|
----------------------------------------------------|
----------------------------------------------------|
----------------------------------------------------|
----------------------------------------------------|


--4-------------------------|
-----------------------2----|
----------------------------|
----------------------------|
----------------------------|
----------------------------|


--------------------------------------------------------------------------------|
--2--------3--------2--------------------------------1-----2-----3-----------6L-|
--------------------------------------------------------------------------------|
--------------------------------------------------------------------------------|
--------------------------------------------------------------------------------|
--------------------------------------------------------------------------------|


--------------------------------------------------------------------|
---------6-----------7--------------------------9-----7-----9-------|
--------------------------------------------------------------------|
--------------------------------------------------------------------|
--------------------------------------------------------------------|
--------------------------------------------------------------------|


--------------------5--4--5-----------------3--2----|
--10----------------7--6--7-----------------5--4----|
----------------------------------------------------|
----------------------------------------------------|
----------------------------------------------------|
----------------------------------------------------|


--3-----------------4-----5-----6-------|
--5-------------------------------------|
----------------------------------------|
----------------------------------------|
----------------------------------------|
----------------------------------------|


--7-----------------------------------------------------5-----------------7-----|
--------------------------------------------------------------------------------|
--------------------------------------------------------------------------------|
--------------------------------------------------------------------------------|
--------------------------------------------------------------------------------|
--------------------------------------------------------------------------------|


------------5--7--5--4--------5--------7--------5--7--5--7L---------|
--------------------------------------------------------------------|
--------------------------------------------------------------------|
--------------------------------------------------------------------|
--------------------------------------------------------------------|
--------------------------------------------------------------------|


--7-----------------------------------------------------5-----------------7-----|
--------------------------------------------------------------------------------|
--------------------------------------------------------------------------------|
--------------------------------------------------------------------------------|
--------------------------------------------------------------------------------|
--------------------------------------------------------------------------------|


------------5--7--5--4--------5--------7--------5--7--5--7----------|
--------------------------------------------------------------------|
--------------------------------------------------------------------|
--------------------------------------------------------------------|
--------------------------------------------------------------------|
--------------------------------------------------------------------|


--9-----------------------------------------------------12-------14s------12s---|
--------------------------------------------------------------------------------|
--------------------------------------------------------------------------------|
--------------------------------------------------------------------------------|
--------------------------------------------------------------------------------|
--------------------------------------------------------------------------------|


---9----------------------------------------------------------------|
------------12-------10-12----10----------10------------------------|
---------------------------11----------11----11-9--------11---------|
--------------------------------------------------------------------|
--------------------------------------------------------------------|
--------------------------------------------------------------------|


----------------------------------------------------------------------------|
-----------------------------------------------------------------10---------|
--11----------------------------------------------9L----9-------------------|
--------------------------------------10----11------------------------------|
----------------------------------------------------------------------------|
----------------------------------------------------------------------------|


--------------------------------------------------------------------------------|
-----------------------------------------------12-------------------------------|
--11----------------------------------11----------------11-------11-------------|
--------------------------------------------------------------------------11----|
--------------------------------------------------------------------------------|
--------------------------------------------------------------------------------|


--------------------------------------------------------------------------------|
--------------------------------------------------------------------------------|
--------------------------------------------------------------------------------|
------------11-------12-------12-------9--------11----------------12------------|
--------------------------------------------------------------------------------|
--------------------------------------------------------------------------------|


--------------------------------------------------------------------------------|
--------------------------------------------------------------------------------|
--------------------------------------------------------------------------------|
----------------------11----------------12----------------12--------------------|
--------------------------------------------------------------------------------|
--------------------------------------------------------------------------------|


----------------------------------------------------|
--------------------------12------------------------|
--11------------------------------------------------|
----------------------------------------------------|
----------------------------------------------------|
----------------------------------------------------|


--------------------------------------------------------------------------------|
--------------------------------------------------------------------------7-----|
--------------------------------------------------------------------------------|
--11----------------11-------12-------12-------9--------11----------------------|
--------------------------------------------------------------------------------|
--------------------------------------------------------------------------------|


------------------------------7-----------9-----------10----------12s-----------|
------9-----------10------------------------------------------------------------|
--------------------------------------------------------------------------------|
--------------------------------------------------------------------------------|
--------------------------------------------------------------------------------|
--------------------------------------------------------------------------------|


--------------------------------------------------------------------------------|
--------------------------------------------------------------------------------|
--------------------------------------------------------------------------------|
--------------------------------------------------------------------------------|
--------------------------------------------------------------------------------|
--------------------------------------------------------------------------------|


--------------12------------------------------------|
----------------------------------------------------|
----------------------------------------------------|
----------------------------------------------------|
----------------------------------------------------|
----------------------------------------------------|


--14----------------14-------12-------9-----------------12----------------------|
--------------------------------------------------------------------------------|
--------------------------------------------------------------------------------|
--------------------------------------------------------------------------------|
--------------------------------------------------------------------------------|
--------------------------------------------------------------------------------|


---9--------------------------------------9-------------------------------------|
------------------------------12----------------------12----------12------------|
--------------------------------------------------------------------------------|
--------------------------------------------------------------------------------|
--------------------------------------------------------------------------------|
--------------------------------------------------------------------------------|


--------------------------------------------------------------------------------|
----------12----------------------10----------------------10--------------------|
--------------------------------------------------------------------------------|
--------------------------------------------------------------------------------|
--------------------------------------------------------------------------------|
--------------------------------------------------------------------------------|


----------------------------------------------------|
--------------------------7-------------------------|
--9-------------------------------------------------|
----------------------------------------------------|
----------------------------------------------------|
----------------------------------------------------|


----------------------------------------|
--------2s-10L10-10-9L-9--10-9L-9--7L---|
--6-------------------------------------|
----------------------------------------|
----------------------------------------|
----------------------------------------|


----------------------------------------------------|
--7--10-------------------------------------1-------|
----------------------------------------------------|
----------------------------------------------------|
----------------------------------------------------|
----------------------------------------------------|


-----------------4--4--3----|
--2--5s-------------5--4----|
----------------------------|
----------------------------|
----------------------------|
----------------------------|


--2-----------------------------------------------------2-------------------|
--3-----------------------------------3-----------------------3-------------|
-----------------------------4--------------------------------------4-------|
----------------------------------------------------------------------------|
----------------------------------------------------------------------------|
----------------------------------------------------------------------------|


--2--7s----------------7--6--7--------6-----5-------|
----------------------------------------------------|
----------------------------------------------------|
----------------------------------------------------|
----------------------------------------------------|
----------------------------------------------------|


--4-------------------------|----------------------------|
----------------------------|--5--9s----------5--9s-1----|
--------------------3--4----|----------------------------|
----------------------------|----------------------------|
----------------------------|----------------------------|
----------------------------|----------------------------|


--------------------------------------------------------------------------8-----|
--2-----------------5s----------------------------10----------12----------------|
--------------------------------------9-----------------------------------------|
--------------------------------------------------------------------------------|
--------------------------------------------------------------------------------|
--------------------------------------------------------------------------------|


---9--------7--------5----------------------------------------------|
------------------------------7--------5--------7--------8s---------|
--------------------------------------------------------------------|
--------------------------------------------------------------------|
--------------------------------------------------------------------|
--------------------------------------------------------------------|


----------------------------------------------------------------------------|
--7s-------5--------2--------2-----1-----2--------------5--------14L--------|
----------------------------------------------------------------------------|
----------------------------------------------------------------------------|
----------------------------------------------------------------------------|
----------------------------------------------------------------------------|


----------------------------------------------------------------------------|
--14-------14----------------------------------9--------12----9-----10------|
----------------------------------------------------------------------------|
----------------------------------------------------------------------------|
----------------------------------------------------------------------------|
----------------------------------------------------------------------------|


----------------------------------------------------|
--10-------------------------------------------7----|
--------------------------------------6--7--9-------|
--------------------------7--6--7--9----------------|
----------------------------------------------------|
----------------------------------------------------|


-----------------------------------------------4--------5-----4-----2-------|
--7--------9s---------------------------------------------------------------|
----------------------------------------------------------------------------|
----------------------------------------------------------------------------|
----------------------------------------------------------------------------|
----------------------------------------------------------------------------|


--2-------------------------------------------------|
--3--------------------0--2--0--2-----2--3--5--7----|
-----------------------------------4----------------|
----------------------------------------------------|
----------------------------------------------------|
----------------------------------------------------|


----------------------------------------------------------------------------|
--7--------12s---------------------------------9--------9--10-9--7----------|
----------------------------------------------------------------------------|
----------------------------------------------------------------------------|
----------------------------------------------------------------------------|
----------------------------------------------------------------------------|


----------------------------------------------------|
--9-----------------------------2--3--2-----2--3----|
-----------------------------------------4----------|
----------------------------------------------------|
----------------------------------------------------|
----------------------------------------------------|


--------------------0-------|
--5-----7--9s----------2----|
----------------------------|
----------------------------|
----------------------------|
----------------------------|


--0-------------------------------------------------------------------------|
-----------2s-------10L---10----10----9L----9-----10----9L----9-----7L------|
----------------------------------------------------------------------------|
----------------------------------------------------------------------------|
----------------------------------------------------------------------------|
----------------------------------------------------------------------------|


----------------------------------------------------|
--7--10-------------------------------------1-------|
----------------------------------------------------|
----------------------------------------------------|
----------------------------------------------------|
----------------------------------------------------|


-----------------4--4--3----|
--2--5s-------------5--4----|
----------------------------|
----------------------------|
----------------------------|
----------------------------|


--2-----------------------------------------------------2-------------------|
--3-----------------------------------3-----------------------3-------------|
-----------------------------4--------------------------------------4-------|
----------------------------------------------------------------------------|
----------------------------------------------------------------------------|
----------------------------------------------------------------------------|


--2--7s----------------7--6--7--------6-----5-------|
----------------------------------------------------|
----------------------------------------------------|
----------------------------------------------------|
----------------------------------------------------|
----------------------------------------------------|


--4-------------------------|
-----------------------2----|
----------------------------|
----------------------------|
----------------------------|
----------------------------|


--------------------------------------------------------------------------------|
--2--------3--------2--------------------------------1-----2-----3-----------6L-|
--------------------------------------------------------------------------------|
--------------------------------------------------------------------------------|
--------------------------------------------------------------------------------|
--------------------------------------------------------------------------------|


--------------------------------------------------------------------|
---------6-----------7--------------------------9-----7-----9-------|
--------------------------------------------------------------------|
--------------------------------------------------------------------|
--------------------------------------------------------------------|
--------------------------------------------------------------------|


--------------------5--4--5-----------------3--2----|
--10----------------7--6--7-----------------5--4----|
----------------------------------------------------|
----------------------------------------------------|
----------------------------------------------------|
----------------------------------------------------|


--3-----------------4-----5-----6-------|
--5-------------------------------------|
----------------------------------------|
----------------------------------------|
----------------------------------------|
----------------------------------------|


--7-----------------------------------------------------5-----------------7-----|
--------------------------------------------------------------------------------|
--------------------------------------------------------------------------------|
--------------------------------------------------------------------------------|
--------------------------------------------------------------------------------|
--------------------------------------------------------------------------------|


------------5--7--5--4--------5--------7--------5--7--5--7L---------|
--------------------------------------------------------------------|
--------------------------------------------------------------------|
--------------------------------------------------------------------|
--------------------------------------------------------------------|
--------------------------------------------------------------------|


--7-----------------------------------------------------5-----------------7-----|
--------------------------------------------------------------------------------|
--------------------------------------------------------------------------------|
--------------------------------------------------------------------------------|
--------------------------------------------------------------------------------|
--------------------------------------------------------------------------------|


------------5--7--5--4--------5--------7--------5--7--5--7----------|
--------------------------------------------------------------------|
--------------------------------------------------------------------|
--------------------------------------------------------------------|
--------------------------------------------------------------------|
--------------------------------------------------------------------|


--9-----------------------------------------------------12-------14s------12s---|
--------------------------------------------------------------------------------|
--------------------------------------------------------------------------------|
--------------------------------------------------------------------------------|
--------------------------------------------------------------------------------|
--------------------------------------------------------------------------------|


---9----------------------------------------------------------------|
------------12-------10-12----10----------10------------------------|
---------------------------11----------11----11-9--------11---------|
--------------------------------------------------------------------|
--------------------------------------------------------------------|
--------------------------------------------------------------------|


----------------------------------------------------------------------------|
-----------------------------------------------------------------10---------|
--11----------------------------------------------9L----9-------------------|
--------------------------------------10----11------------------------------|
----------------------------------------------------------------------------|
----------------------------------------------------------------------------|


-----------------7----|-----------------9----|----------|
--7-----------7-------|--9-----------9-------|--10-10---|
-----------7----------|-----------9----------|-----11---|
----------------------|----------------------|-----12---|
----------------------|----------------------|----------|
----------------------|----------------------|----------|


--------2-------------------||
--5--3--3-------------------||
--6--4--2-------------------||
--7--5--0-------------------||
----------------------------||
----------------------------||
Добавлено: 15.10.2013
Другие материалы по этой песне:

Страница создана 03.10.2013
http://primanota.ru/misc-unsigned-bands/eddie-dimas-maria-elena-chords.htm
Привет, Гость.
Предлагаем пройти революционный курс по гитаре.
Подарок от PrimaNota.Ru, забирай!