PrimaNota.ru - самый крупный в мире бесплатный архив песенных текстов, аккордов, табулатур и нот


Misc Unsigned Bands - Forget About Tomorrow - Daydream - таба

Регистрация Запомнить меня
Войти через:  Facebook Google Twitter Vk Yandex Mail.ru

Misc Unsigned Bands - Forget About Tomorrow - Daydream - таба

Печатать
Просмотров: 81
Уроки эстрадного вокала в Санкт-Петербурге
e|------------------|x2
B|------------------|
G|8~~~--------------|
D|8~~~8~~~10~~~6~~~-|
A|6~~~8~~~10~~~6~~~-|
E|----6~~~8 ~~~4~~~-|

e|------------------------------------|x3
B|------------------------------------|
G|-------------------8888888888888888-|
D|xxx66666666666666668888888888888888-|
A|xxx66666666666666666666666666666666-|
E|xxx4444444444444444-----------------|

e|---------------------------------|
B|---------------------------------|
G|---------------------------------|
D|88888888888888888888888888888888-|
A|88888888888888888888888888888888-|
E|66666666666666666666666666666666-|

e|-------|x3
B|-------|
G|-------|
D|101010-|
A|101010-|
E|8 8 8 -|

e|-----|
B|-----|
G|-----|
D|8~~~-|
A|8~~~-|
E|6~~~-|

e|-------------------------|x3
B|-------------------------|
G|-------------------------|
D|101010-------------------|
A|101010--------------66---|
E|8 8 8 ------------44--66-|

e|---------|
B|---------|
G|---------|
D|8~~~6~~~-|
A|8~~~6~~~-|
E|6~~~4~~~-|

e|--------------------------|x2
B|--------------------------|
G|8(x16)--------------------|
D|8-----8(x16)10(x16)6(x16--|
A|6-----8-----10-----6------|
E|------6-----8 -----4------|

e|-------|x3
B|-------|
G|-------|
D|101010-|
A|101010-|
E|8 8 8 -|

e|-----|
B|-----|
G|-----|
D|8~~~-|
A|8~~~-|
E|6~~~-|

e|-------------------------|x3
B|-------------------------|
G|-------------------------|
D|101010-------------------|
A|101010--------------66---|
E|8 8 8 ------------44--66-|

e|---------|
B|---------|
G|---------|
D|8~~~6~~~-|
A|8~~~6~~~-|
E|6~~~4~~~-|

Bass/Drums only

e|-----------------------------------------|x2
B|-----------------------------------------|
G|------------8888-------------------------|
D|10101010666688888888---------------------|
A|1010101066666666888810101010666633335555-|
E|8 8 8 8 4444----66668 8 8 8 444411113333-|

e|-----|
B|-----|
G|-----|
D|6~~~-|
A|6~~~-|
E|4~~~-|

Chords (soft chorus)

e|--------------------------|
B|--------------------------|
G|8(x16)--------------------|
D|8-----8(x16)10(x16)6(x16--|
A|6-----8-----10-----6------|
E|------6-----8 -----4------|

e|--------------------|
B|--------------------|
G|8(x16)--------------|
D|8-----8(x16)10(x16--|
A|6-----8-----10------|
E|------6-----8 ------|

e|-----------------------------------|x3
B|-----------------------------------|
G|------------------8888888888888888-|
D|x-66666666666666668888888888888888-|
A|x-66666666666666666666666666666666-|
E|x-4444444444444444-----------------|

e|---------------------------------|
B|---------------------------------|
G|---------------------------------|
D|88888888888888888888888888888888-|
A|88888888888888888888888888888888-|
E|66666666666666666666666666666666-|
Добавлено: 20.02.2014
Другие материалы по этой песне:
  • Аккорды и текст

Страница создана 20.02.2014
http://primanota.ru/misc-unsigned-bands/forget-about-tomorrow-daydream-chords.htm
Привет, Гость.
Предлагаем пройти революционный курс по гитаре.
Подарок от PrimaNota.Ru, забирай!