PrimaNota.ru - самый крупный в мире бесплатный архив песенных текстов, аккордов, табулатур и нот


Misc Unsigned Bands - Death Among Us - Bleed - таба, видео

Регистрация Запомнить меня
Войти через:  Facebook Google Twitter Vk Yandex Mail.ru

Misc Unsigned Bands - Death Among Us - Bleed - таба, видео

Печатать
Просмотров: 47
Уроки эстрадного вокала в Санкт-Петербурге
tabbed by:immorta51654

 intro riff(both guitars)
1----------------------|
2---------12h14p-------|
3---------------17-----|
4-6-6-6-6--------------|
5-6-6-6-6--------------|
6-4-4-4-4--------------|

1----------------------|
2---------15b^13h------|
3----------------12p---|
4-8-8-8-8--------------|
5-8-8-8-8--------------|
6-6-6-6-6--------------|

  Main riff
1-----------------|
2-----------------|
3-----------------|
4--10-9---10-9-7--|
5-----------------|
6-----------------|

1-----------------|
2-----------------|
3-----------------|
4--10-9---10-9-7--|
5-----------------|
6-----------------|

1---------------------------------|
2---------------------------------|
3---------------------------------|
4-10-10-10-9-9-9-7-7-7---10-9-9-7-|
5---------------------------------|
6---------------------------------|

1-------------|
2-------------|
3-------------|
4--------11~--|
5--6H12p------|
6-------------|

 verse1
1---------------------------------|
2---------------------------------|
3---------------------------------|
4-7-7-7-7-7-7-7-7-9-9-9-9-9-9-9-9-|
5-7-7-7-7-7-7-7-7-9-9-9-9-9-9-9-9-|
6-5-5-5-5-5-5-5-5-7-7-7-7-7-7-7-7-|

1---------------------------------|
2---------------------------------|
3---------------------------------|
4-x-x-x-x-x-x-x-x-9-9-9-9-9-9-9-9-|
5-7-7-7-7-7-7-7-7-x-x-x-x-x-x-x-x-|
6-7-7-7-7-7-7-7-7-9-9-9-9-9-9-9-9-|

 chorus(freaking hard)-rythem part
1---------------------|
2---------------------|
3---------------------|
4---------------------|
5------12-12-12-9-9-9-|
6-6-6X-xx-xx-xx-7-9-x-|

 lead part
1---------------------|
2----17p---9b---------|
3-14h---14b^-20-19-21-|
4---------------------|
5---------------------|
6---------------------|

1----------------------|
2-10-10-10-10-10-10-10-|
3----------------------|
4----------------------|
5----------------------|
6----------------------|

 solo
1---------------------------|
2---------------------------|
3-------------13-12h13p-----|
4---------15-15--------15h*-|
5-----12-9------------------|
6-13-15---------------------|

1-rest---------------------|
2----is--------------------|
3------impossible to do----|
4--------------------------|
5--------------------------|
6--------------------------|
Добавлено: 18.08.2013
Другие материалы по этой песне:
  • Аккорды и текст

Страница создана 18.08.2013
http://primanota.ru/misc-unsigned-bands/death-among-us-bleed-chords.htm
Привет, Гость.
Предлагаем пройти революционный курс по гитаре.
Подарок от PrimaNota.Ru, забирай!