PrimaNota.ru - самый крупный в мире бесплатный архив песенных текстов, аккордов, табулатур и нот


Misc Unsigned Bands - Death Ribbon - This War Is Ours - таба

Регистрация Запомнить меня
Войти через:  Facebook Google Twitter Vk Yandex Mail.ru

Misc Unsigned Bands - Death Ribbon - This War Is Ours - таба

Печатать
Просмотров: 39
-------------------------------------------------------------------------------
                             This War is Ours - Death Ribbon
-------------------------------------------------------------------------------
Tabbed by: zackstry 
Email: zaxstry@hotmail.com

Tuning: Drop D

INTRO/VERSE [x2]
E|-----------------------------------------|
B|-----------------------------------------|
G|-----------------------------------------|
D|-----------------------------------------| 
A|--------12--------34--------12-----------|   
D|-0000-13---0000-35---0000-13---0000-3513-|   
   ....      ....      ....      ....                      
E|-----------------------------------|
B|-----------------------------------|
G|-----------------------------------|
D|-----------------------------------|    
A|--------12--------34--------12-3-1-|
D|-0000-13---0000-35---0000-13---3-1-|
   ....      ....      ....

CHORUS [x3]
E|---------|---------|---------|---------|
B|---------|---------|---------|---------|
G|---------|---------|---------|---------|
D|------4--|------5--|------3--|---------| 
A|------2--|------2--|------1--|------3--|   
D|-0000----|-0000----|-0000----|-0000-3--|    
   ....      ....      ....      ....                             
E|---------|---------|---------|---------|    
B|---------|---------|---------|---------|   
G|---------|---------|---------|---------| 
D|------4--|------5--|------3--|---------|
A|------2--|------2--|------1--|------33-|
D|-0000----|-0000----|-0000----|-0000-33-|
   ....      ....      ....      ....

BRIDGE [x4]
E|---------------------------------|
B|---------------------------------|
G|---------------------------------|
D|---------------------------------|
A|-----------------------------3-3-|
D|-0000---0000---0000---0000---3-3-|
   ....   ....   ....   ....

BRIDGE 2 [x2]
E|---------------------------------|----------------------------------|
B|---------------------------------|----------------------------------|
G|---------------------------------|----------------------------------|
D|---------------------------------|----------------------------------| 
A|------6-------3-------5-------1--|------6-------3-------5-------1-1-|
D|-0000-6--0000-3--0000-5--0000-1--|-0000-6--0000-3--0000-5--0000-1-1-|
   ....    ....    ....    ....      ....    ....    ....    ....

SOLO [x4]
E|-----------------------------------------|-----------------------------------------|
B|-19t15t12t-19t15t12t-19t15t12t-19t15t12t-|-19t14t11t-19t14t11t-19t14t11t-19t14t11t-|
G|-----------------------------------------|-----------------------------------------|
D|-----------------------------------------|-----------------------------------------|
A|-----------------------------------------|-----------------------------------------|   
D|-----------------------------------------|-----------------------------------------|

E|-----------------------------------------|-----------------------------------------|
B|-19t15t12t-19t15t12t-19t15t12t-19t15t12t-|-20t15t12t-20t15t12t-20t15t12t-20t15t12t-|
G|-----------------------------------------|-----------------------------------------|
D|-----------------------------------------|-----------------------------------------|
A|-----------------------------------------|-----------------------------------------|
D|-----------------------------------------|-----------------------------------------|

OUTRO [X2]
E|---------------------|----------------------|
B|---------------------|----------------------|
G|---------------------|----------------------|
D|---------------------|----------------------|
A|-6---3---5---2---3-2-|-6---3---5---2---3----|
D|-6-0-3-0-5-0-2-0-3-2-|-6-0-3-0-5-0-2-0-3-2*-|
     .   .   .   .         .   .   .   .
ENDING
E|---|
B|---|
G|---|
D|---|
A|-0-|
D|-0-|

===============================================================================
| /  slide up
| \  slide down
| h  hammer-on
| p  pull-off
| ~  vibrato
| t  tap
| *  harmonic
| .  palm mute
===============================================================================

   SONG ORDER
Rhythm......Lead
intro......intro
chorus....chorus
verse......verse
chorus....chorus
bridge....bridge
bridge2.....solo
chorus....chorus
outro......outro
ending....ending
Добавлено: 02.08.2013
Другие материалы по этой песне:
  • Аккорды и текст

Страница создана 02.08.2013
http://primanota.ru/misc-unsigned-bands/death-ribbon-this-war-is-ours-chords.htm
Привет, Гость.
Предлагаем пройти революционный курс по гитаре.
Подарок от PrimaNota.Ru, забирай!