PrimaNota.ru - самый крупный в мире бесплатный архив песенных текстов, аккордов, табулатур и нот


Misc Unsigned Bands - Dark Sermon - From Eden - таба

Регистрация Запомнить меня
Войти через:  Facebook Google Twitter Vk Yandex Mail.ru

Misc Unsigned Bands - Dark Sermon - From Eden - таба

Печатать
Просмотров: 35
Line 1 - Right Guitar
Line 2 - Left Guitar
Line 3 - Bass
Line 4 - Center Guitar

Db :----------------|----------------|----------------|----------------|
Ab :----------------|----------------|----------------|----------------|
E  :----------------|----------------|----------------|----------------|
B  :--------5-4-1---|0---------------|----------------|----------------|
Gb :--------5-4-1---|0---------------|----------------|0-*-------------|
B  :--------5-4-1---|0---------------|----------------|0---------------|

Db :----------------|----------------|----------------|----------------|
Ab :----------------|----------------|----------------|----------------|
E  :----------------|----------------|----------------|----------------|
B  :--------5-4-1---|0---------------|----------------|5-4---------4-5-|
Gb :--------5-4-1---|0---------------|----------------|----6-5-6-5-----|
B  :--------5-4-1---|0---------------|----------------|----------------|

E  :----------------|----------------|----------------|----------------|
B  :----------------|----------------|----------------|----------------|
Gb :----------------|----------------|----------------|----------------|
B  :--------5-4-1---|0---------------|----------------|0-*-------------|

Db :----------------|----------------|----------------|----------------|
Ab :----------------|----------------|----------------|----------------|
E  :----------------|----------------|----------------|----------------|
B  :----------------|----------------|----------------|----------------|
Gb :----------------|----------------|----------------|----------------|
B  :----------------|----------------|----------------|----------------|

============================================================================

Db :----------------|-------------------------------|
Ab :----------------|-------------------------------|
E  :----------------|-------------------------------|
B  :----------------|-------------------------------|
Gb :----------------|5-5-5-5------------------------|
B  :----------------|--------0-0-0-0-1-1-1-1-5-5-5-5|

Db :----------------|-------------------------------|
Ab :----------------|-------------------------------|
E  :2-3-2---2-------|-------------------------------|
B  :------5---5-4-1-|-------------------------------|
Gb :----------------|5-5-5-5------------------------|
B  :----------------|--------0-0-0-0-1-1-1-1-5-5-5-5|

E  :----------------|-------------------------------|
B  :----------------|-------------------------------|
Gb :----------------|5---5--------------------------|
B  :----------------|--------0---0---1---1---5---5--|

Db :----------------|-------------------------------|
Ab :----------------|-------------------------------|
E  :----------------|-------------------------------|
B  :----------------|-------------------------------|
Gb :----------------|-------------------------------|
B  :----------------|-------------------------------|

============================================================================

Db :-------------------------------|-------------------------------|
Ab :-------------------------------|-------------------------------|
E  :-------------------------------|-------------------------------|
B  :-------------------------------|-------------------------------|
Gb :-------------------------------|6-6-6-6------------------------|
B  :8-8-8-8-7-7-7-7-5-5-5-5-8-8-8-8|--------0-0-0-0-1-1-1-1-5-5-5-5|

Db :-------------------------------|-------------------------------|
Ab :-------------------------------|-------------------------------|
E  :-------------------------------|-------------------------------|
B  :-------------------------------|-------------------------------|
Gb :-------------------------------|6-6-6-6------------------------|
B  :8-8-8-8-7-7-7-7-5-5-5-5-8-8-8-8|--------0-0-0-0-1-1-1-1-5-5-5-5|

E  :-------------------------------|-------------------------------|
B  :-------------------------------|-------------------------------|
Gb :-------------------------------|6---6--------------------------|
B  :8---8---7---7---5---5---8---8--|--------0---0---1---1---5---5--|

Db :-------------------------------|-------------------------------|
Ab :-------------------------------|-------------------------------|
E  :-------------------------------|-------------------------------|
B  :-------------------------------|-------------------------------|
Gb :-------------------------------|-------------------------------|
B  :-------------------------------|-------------------------------|

============================================================================

Db :-------------------------------|-------------------------------|
Ab :-------------------------------|-------------------------------|
E  :-------------------------------|-------------------------------|
B  :-------------------------------|-------------------------------|
Gb :-------------------------------|3-3-3-3------------------------|
B  :8-8-8-8-7-7-7-7-5-5-5-5-7-7-7-7|--------0-0-0-0-1-1-1-1-5-5-5-5|

Db :-------------------------------|-------------------------------|
Ab :-------------------------------|-------------------------------|
E  :-------------------------------|-------------------------------|
B  :-------------------------------|-------------------------------|
Gb :-------------------------------|3-3-3-3------------------------|
B  :8-8-8-8-7-7-7-7-5-5-5-5-7-7-7-7|--------0-0-0-0-1-1-1-1-5-5-5-5|

E  :-------------------------------|-------------------------------|
B  :-------------------------------|-------------------------------|
Gb :-------------------------------|3---3--------------------------|
B  :8---8---7---7---5---5---7---7--|--------0---0---1---1---5---5--|

Db :-------------------------------|-------------------------------|
Ab :-------------------------------|-------------------------------|
E  :-------------------------------|-------------------------------|
B  :-------------------------------|-------------------------------|
Gb :-------------------------------|-------------------------------|
B  :-------------------------------|-------------------------------|

============================================================================

Db :-------------------------------|-------------------------------|
Ab :-------------------------------|-------------------------------|
E  :-------------------------------|-------------------------------|
B  :-------------------------------|-------------------------------|
Gb :-------------------------------|1-1-1-1------------------------|
B  :8-8-8-8-7-7-7-7-5-5-5-5-1-1-1-1|--------0-0-0-0-4-4-4-4-5-5-5-5|

Db :-------------------------------|-------------------------------|
Ab :-------------------------------|-------------------------------|
E  :-------------------------------|-------------------------------|
B  :-------------------------------|-------------------------------|
Gb :-------------------------------|1-1-1-1------------------------|
B  :8-8-8-8-7-7-7-7-5-5-5-5-1-1-1-1|--------0-0-0-0-4-4-4-4-5-5-5-5|

E  :-------------------------------|-------------------------------|
B  :-------------------------------|-------------------------------|
Gb :-------------------------------|1---1--------------------------|
B  :8---8---7---7---5---5---1---1--|--------0---0---4---4---5---5--|

Db :-------------------------------|-------------------------------|
Ab :-------------------------------|-------------------------------|
E  :-------------------------------|-------------------------------|
B  :-------------------------------|-------------------------------|
Gb :-------------------------------|-------------------------------|
B  :-------------------------------|-------------------------------|

============================================================================

Db :-------------------------------|-------------------------------|
Ab :-------------------------------|-------------------------------|
E  :-------------------------------|-------------------------------|
B  :-------------------------------|-------------------------------|
Gb :0-0-0-0------------------------|5-5-5-5------------------------|
B  :--------0-0-0-0-4-4-4-4-7-7-7-7|--------0-0-0-0-1-1-1-1-5-5-5-5|

Db :-------------------------------|-------------------------------|
Ab :-------------------------------|-------------------------------|
E  :-------------------------------|-------------------------------|
B  :-------------------------------|-------------------------------|
Gb :0-0-0-0------------------------|5-5-5-5------------------------|
B  :--------0-0-0-0-4-4-4-4-7-7-7-7|--------0-0-0-0-1-1-1-1-5-5-5-5|

E  :-------------------------------|-------------------------------|
B  :-------------------------------|-------------------------------|
Gb :0---0--------------------------|5---5--------------------------|
B  :--------0---0---4---4---7---7--|--------0---0---1---1---5---5--|

Db :-------------------------------|-------------------------------|
Ab :-------------------------------|-------------------------------|
E  :-------------------------------|-------------------------------|
B  :-------------------------------|-------------------------------|
Gb :-------------------------------|-------------------------------|
B  :-------------------------------|-------------------------------|

============================================================================

Db :-------------------------------|-------------------------------|
Ab :-------------------------------|-------------------------------|
E  :-------------------------------|-------------------------------|
B  :-------------------------------|-------------------------------|
Gb :-------------------------------|6-6-6-6------------------------|
B  :8-8-8-8-7-7-7-7-5-5-5-5-8-8-8-8|--------0-0-0-0-1-1-1-1-5-5-5-5|

Db :-------------------------------|-------------------------------|
Ab :-------------------------------|-------------------------------|
E  :-------------------------------|-------------------------------|
B  :-------------------------------|-------------------------------|
Gb :-------------------------------|6-6-6-6------------------------|
B  :8-8-8-8-7-7-7-7-5-5-5-5-8-8-8-8|--------0-0-0-0-1-1-1-1-5-5-5-5|

E  :-------------------------------|-------------------------------|
B  :-------------------------------|-------------------------------|
Gb :-------------------------------|6---6--------------------------|
B  :8---8---7---7---5---5---8---8--|--------0---0---1---1---5---5--|

Db :-------------------------------|-------------------------------|
Ab :-------------------------------|-------------------------------|
E  :-------------------------------|-------------------------------|
B  :-------------------------------|-------------------------------|
Gb :-------------------------------|-------------------------------|
B  :-------------------------------|-------------------------------|

============================================================================

Db :-------------------------------|-------------------------------|
Ab :-------------------------------|-------------------------------|
E  :-------------------------------|-------------------------------|
B  :-------------------------------|-------------------------------|
Gb :-------------------------------|3-3-3-3------------------------|
B  :8-8-8-8-7-7-7-7-5-5-5-5-7-7-7-7|--------0-0-0-0-1-1-1-1-5-5-5-5|

Db :-------------------------------|-------------------------------|
Ab :-------------------------------|-------------------------------|
E  :-------------------------------|-------------------------------|
B  :-------------------------------|-------------------------------|
Gb :-------------------------------|3-3-3-3------------------------|
B  :8-8-8-8-7-7-7-7-5-5-5-5-7-7-7-7|--------0-0-0-0-1-1-1-1-5-5-5-5|

E  :-------------------------------|-------------------------------|
B  :-------------------------------|-------------------------------|
Gb :-------------------------------|3---3--------------------------|
B  :8---8---7---7---5---5---7---7--|--------0---0---1---1---5---5--|

Db :-------------------------------|-------------------------------|
Ab :-------------------------------|-------------------------------|
E  :-------------------------------|-------------------------------|
B  :-------------------------------|-------------------------------|
Gb :-------------------------------|-------------------------------|
B  :-------------------------------|-------------------------------|

============================================================================

Db :-------------------------------|-------------------------------|
Ab :-------------------------------|-------------------------------|
E  :-------------------------------|-------------------------------|
B  :-------------------------------|-------------------------------|
Gb :-------------------------------|1-1-1-1------------------------|
B  :8-8-8-8-7-7-7-7-5-5-5-5-1-1-1-1|--------0-0-0-0-4-4-4-4-5-5-5-5|

Db :-------------------------------|-------------------------------|
Ab :-------------------------------|-------------------------------|
E  :-------------------------------|-------------------------------|
B  :-------------------------------|-------------------------------|
Gb :-------------------------------|1-1-1-1------------------------|
B  :8-8-8-8-7-7-7-7-5-5-5-5-1-1-1-1|--------0-0-0-0-4-4-4-4-5-5-5-5|

E  :-------------------------------|-------------------------------|
B  :-------------------------------|-------------------------------|
Gb :-------------------------------|1---1--------------------------|
B  :8---8---7---7---5---5---1---1--|--------0---0---4---4---5---5--|

Db :-------------------------------|-------------------------------|
Ab :-------------------------------|-------------------------------|
E  :-------------------------------|-------------------------------|
B  :-------------------------------|-------------------------------|
Gb :-------------------------------|-------------------------------|
B  :-------------------------------|-------------------------------|

============================================================================

Db :-------------------------------|----------------|--------------------|
Ab :-------------------------------|----------------|--------------------|
E  :-------------------------------|----------------|--------------------|
B  :-------------------------------|----------------|--------------------|
Gb :0-0-0-0------------------------|----------------|5-------------0-----|
B  :--------0-0-0-0-4-4-4-4-7-7-7-7|0-*-------------|--8-0-0-0-0-0---4-5-|

Db :-------------------------------|----------------|--------------------|
Ab :-------------------------------|----------------|--------------------|
E  :-------------------------------|----------------|--------------------|
B  :-------------------------------|----------------|--------------------|
Gb :0-0-0-0------------------------|------3-0-6-----|--------------0-----|
B  :--------0-0-0-0-4-4-4-4-7-7-7-7|5-0-1-------4-5-|8-5-0-0-0-0-0---4-5-|

E  :-------------------------------|----------------|--------------------|
B  :-------------------------------|----------------|--------------------|
Gb :0---0--------------------------|----------------|--------------------|
B  :--------0---0---4---4---7---7--|0-*-------------|8-5-0---0---0-0-0-0-|

Db :-------------------------------|----------------|--------------------|
Ab :-------------------------------|----------------|--------------------|
E  :-------------------------------|----------------|--------------------|
B  :-------------------------------|----------------|--------------------|
Gb :-------------------------------|----------------|--------------------|
B  :-------------------------------|----------------|--------------------|

============================================================================

Db :----------------|----------------|-----------------|
Ab :----------------|----------------|-----------------|
E  :----------------|----------------|-----------5-----|
B  :----------------|----------5---4-|/7-5-4-7---------|
Gb :----------------|5-----6---------|-----------------|
B  :0-5-0-4-7-5-4-8-|--8-5---4---4---|---------4---4-7-|

Db :----------------|----------------|-----------------|
Ab :----------------|----------------|-----------------|
E  :----------------|----------------|-----------------|
B  :----------------|----------1---0-|/4-----4---7-----|
Gb :----------------|1-----3---------|---6-5-----------|
B  :0-5-0-4-7-5-4-5-|--5-1---0---0---|---------0---0-4-|

E  :----------------|----------------|-----------------|
B  :----------------|----------------|-4-4-4-4-7-7-7-7-|
Gb :----------------|------------6-5-|-----------------|
B  :0-0-0-0-0-0-4-5-|8-8-8-8-8-8-----|-----------------|

Db :----------------|----------------|-----------------|
Ab :----------------|----------------|-----------------|
E  :----------------|----------------|-----------------|
B  :----------------|----------------|-----------------|
Gb :----------------|----------------|-----------------|
B  :----------------|----------------|-----------------|

============================================================================

Db :--------------------|----------------|----------------|----------------|
Ab :--------------------|----------------|----------------|----------------|
E  :--------------------|----------------|----------------|----------------|
B  :--------------------|----------------|5---------------|4---------------|
Gb :5-------------1-----|----------------|3---------------|6---------------|
B  :--8-0-0-0-0-0---4-5-|0-5-0-4-7-5-4-8-|5---------------|4---------------|

Db :--------------------|----------------|----------------|----------------|
Ab :--------------------|----------------|----------------|----------------|
E  :--------------------|----------------|----------------|----------------|
B  :--------------------|----------------|----------------|4-5-4---4---4-7-|
Gb :--------------1-----|----------------|3-----------5-6-|------6---6-----|
B  :8-5-0-0-0-0-0---4-5-|0-5-0-4-7-5-4-5-|--5-0-4-5-7-----|----------------|

E  :--------------------|----------------|----------------|----------------|
B  :--------------------|----------------|----------------|----------------|
Gb :--------------------|----------------|------3---------|--------6-------|
B  :8-5-0---0---0-0-0-0-|0-0-0-0-0-0-4-5-|5-----------5---|4---------------|

Db :--------------------|----------------|----------------|----------------|
Ab :--------------------|----------------|----------------|----------------|
E  :--------------------|----------------|----------------|----------------|
B  :--------------------|----------------|----------------|----------------|
Gb :--------------------|----------------|----------------|----------------|
B  :--------------------|----------------|----------------|----------------|

============================================================================

Db :--------------------|----------------|----------------|
Ab :--------------------|----------------|----------------|
E  :--------------------|----------------|----------------|
B  :--------------------|----------------|----------5---4-|
Gb :5-------------0-----|----------------|5-----6---------|
B  :--8-0-0-0-0-0---4-5-|0-5-0-4-7-5-4-8-|--8-5---4---4---|

Db :--------------------|----------------|----------------|
Ab :--------------------|----------------|----------------|
E  :--------------------|----------------|----------------|
B  :--------------------|----------------|----------1---0-|
Gb :--------------0-----|----------------|1-----3---------|
B  :8-5-0-0-0-0-0---4-5-|0-5-0-4-7-5-4-5-|--5-1---0---0---|

E  :--------------------|----------------|----------------|
B  :--------------------|----------------|----------------|
Gb :--------------------|----------------|------------6-5-|
B  :8-5-0---0---0-0-0-0-|0-0-0-0-0-0-4-5-|8-8-8-8-8-8-----|

Db :--------------------|----------------|----------------|
Ab :--------------------|----------------|----------------|
E  :--------------------|----------------|----------------|
B  :--------------------|----------------|----------------|
Gb :--------------------|----------------|----------------|
B  :--------------------|----------------|----------------|

============================================================================

Db :-----------------|--------------------|----------------|
Ab :-----------------|--------------------|----------------|
E  :-----------5-----|--------------------|----------------|
B  :/7-5-4-7---------|--------------------|----------------|
Gb :-----------------|5-------------1-----|----------------|
B  :---------4---4-7-|--8-0-0-0-0-0---4-5-|0-5-0-4-7-5-4-8-|

Db :-----------------|--------------------|----------------|
Ab :-----------------|--------------------|----------------|
E  :-----------------|--------------------|----------------|
B  :/4-----4---7-----|--------------------|----------------|
Gb :---6-5-----------|--------------1-----|----------------|
B  :---------0---0-4-|8-5-0-0-0-0-0---4-5-|0-5-0-4-7-5-0-5-|

E  :-----------------|--------------------|----------------|
B  :-4-4-4-4-7-7-7-7-|--------------------|----------------|
Gb :-----------------|--------------------|----------------|
B  :-----------------|8-5-0---0---0-0-0-0-|0-0-0-0-0-0-4-5-|

Db :-----------------|--------------------|----------------|
Ab :-----------------|--------------------|----------------|
E  :-----------------|--------------------|----------------|
B  :-----------------|--------------------|----------------|
Gb :-----------------|--------------------|----------------|
B  :-----------------|--------------------|----------------|

============================================================================

Db :----------------|----------------|------------------------|
Ab :----------------|----------------|------------------------|
E  :----------------|----------------|------------------------|
B  :5---------------|4---------------|-0----------------------|
Gb :3---------------|6---------------|-0----------------------|
B  :5---------------|4---------------|-0----------------------|

Db :----------------|----------------|------------------------|
Ab :----------------|----------------|------------------------|
E  :----------------|----------------|------------------------|
B  :5---------------|4---------------|-0----------------------|
Gb :3---------------|6---------------|-0----------------------|
B  :5---------------|4---------------|-0----------------------|

E  :----------------|----------------|------------------------|
B  :----------------|----------------|------------------------|
Gb :------3---------|--------6-------|------------------------|
B  :5-----------5---|4---------------|-0----------------------|

Db :----------------|----------------|------------------------|
Ab :----------------|----------------|------------------------|
E  :----------------|----------------|12-11-------------11-12-|
B  :----------------|----------------|------13-12-13-12-------|
Gb :----------------|----------------|------------------------|
B  :----------------|----------------|------------------------|

============================================================================

Db :-----------------------|------------------------|
Ab :-----------------------|------------------------|
E  :-----------------------|------------------------|
B  :-----------------------|-0----------------------|
Gb :-----------------------|-0----------------------|
B  :-----------------------|-0----------------------|

Db :-----------------------|------------------------|
Ab :-----------------------|------------------------|
E  :-----------------------|------------------------|
B  :-----------------------|-0----------------------|
Gb :-----------------------|-0----------------------|
B  :-----------------------|-0----------------------|

E  :-----------------------|------------------------|
B  :-----------------------|------------------------|
Gb :-----------------------|------------------------|
B  :-----------------------|-0----------------------|

Db :-----------------------|------------------------|
Ab :10-11-10----10---------|------------------------|
E  :---------12----12-11-8-|12-11-------------11-12-|
B  :-----------------------|------13-12-13-12-------|
Gb :-----------------------|------------------------|
B  :-----------------------|------------------------|

============================================================================

Db :-----------------------|------------------------|
Ab :-----------------------|------------------------|
E  :-----------------------|------------------------|
B  :-----------------------|------------------------|
Gb :-----------------------|------------------------|
B  :-----------------------|------------------------|

Db :-----------------------|------------------------|
Ab :-----------------------|------------------------|
E  :-----------------------|------------------------|
B  :-----------------------|------------------------|
Gb :-----------------------|------------------------|
B  :-----------------------|------------------------|

E  :-----------------------|------------------------|
B  :-----------------------|------------------------|
Gb :-----------------------|------------------------|
B  :-----------------------|------------------------|

Db :-----------------------|------------------------|
Ab :10-11-10----10---------|------------------------|
E  :---------12----12-11-8-|12-11-------------11-12-|
B  :-----------------------|------13-12-13-12-------|
Gb :-----------------------|------------------------|
B  :-----------------------|------------------------|

============================================================================

Db :-----------------------|------------------------|
Ab :-----------------------|------------------------|
E  :-----------------------|------------------------|
B  :-----------------------|-0----------------------|
Gb :-----------------------|-0----------------------|
B  :-----------------------|-0----------------------|

Db :-----------------------|------------------------|
Ab :-----------------------|------------------------|
E  :-----------------------|------------------------|
B  :-----------------------|-0----------------------|
Gb :-----------------------|-0----------------------|
B  :-----------------------|-0----------------------|

E  :-----------------------|------------------------|
B  :-----------------------|------------------------|
Gb :-----------------------|------------------------|
B  :-----------------------|------------------------|

Db :-----------------------|------------------------|
Ab :10-11-10----10---------|------------------------|
E  :---------12----12-11-8-|12-11-------------11-12-|
B  :-----------------------|------13-12-13-12-------|
Gb :-----------------------|------------------------|
B  :-----------------------|------------------------|

============================================================================

Db :-----------------------|------------------------|
Ab :-----------------------|------------------------|
E  :-----------------------|------------------------|
B  :-----------------------|------------------------|
Gb :-----------------------|------------------------|
B  :-----------------------|------------------------|

Db :-----------------------|------------------------|
Ab :-----------------------|------------------------|
E  :-----------------------|------------------------|
B  :-----------------------|------------------------|
Gb :-----------------------|------------------------|
B  :-----------------------|------------------------|

E  :-----------------------|------------------------|
B  :-----------------------|------------------------|
Gb :-----------------------|------------------------|
B  :-----------------------|------------------------|

Db :-----------------------|------------------------|
Ab :10-11-10----10---------|------------------------|
E  :---------12----12-11-8-|12-11-------------11-12-|
B  :-----------------------|------13-12-13-12-------|
Gb :-----------------------|------------------------|
B  :-----------------------|------------------------|

============================================================================

Db :-----------------------|--------------------|----------------|
Ab :-----------------------|--------------------|----------------|
E  :-----------------------|--------------------|----------------|
B  :-----------------------|--------------------|----------------|
Gb :-----------------------|5-------------0-----|----------------|
B  :-----------------------|--8-0-0-0-0-0---4-5-|0-5-0-4-7-5-4-8-|

Db :-----------------------|--------------------|----------------|
Ab :-----------------------|--------------------|----------------|
E  :-----------------------|--------------------|----------------|
B  :-----------------------|--------------------|----------------|
Gb :-----------------------|--------------0-----|----------------|
B  :-----------------------|8-5-0-0-0-0-0---4-5-|0-5-0-4-7-5-0-5-|

E  :-----------------------|--------------------|----------------|
B  :-----------------------|--------------------|----------------|
Gb :-----------------------|--------------------|----------------|
B  :-----------------------|8-5-0---0---0-0-0-0-|0-0-0-0-0-0-4-5-|

Db :-----------------------|--------------------|----------------|
Ab :10-11-10----10---------|--------------------|----------------|
E  :---------12----12-11-8-|*-------------------|----------------|
B  :-----------------------|--------------------|----------------|
Gb :-----------------------|--------------------|----------------|
B  :-----------------------|--------------------|----------------|

============================================================================

Db :----------------|-----------------|--------------------|
Ab :----------------|-----------------|--------------------|
E  :----------------|-----------5-----|--------------------|
B  :----------5---4-|/7-5-4-7---------|--------------------|
Gb :5-----6---------|-----------------|5-------------0-----|
B  :--8-5---0---0---|---------0---0-7-|--8-0-0-0-0-0---4-5-|

Db :----------------|-----------------|--------------------|
Ab :----------------|-----------------|--------------------|
E  :----------------|-----------------|--------------------|
B  :----------1---0-|/4-----4---7-----|--------------------|
Gb :1-----3---------|---6-5-----------|--------------0-----|
B  :--5-1---0---0---|---------0---0-4-|8-5-0-0-0-0-0---4-5-|

E  :----------------|-----------------|--------------------|
B  :----------------|-4-4-4-4-7-7-7-7-|--------------------|
Gb :------------6-5-|-----------------|--------------------|
B  :8-8-8-8-8-8-----|-----------------|8-5-0---0---0-0-0-0-|

Db :----------------|-----------------|--------------------|
Ab :----------------|-----------------|--------------------|
E  :----------------|-----------------|--------------------|
B  :----------------|-----------------|--------------------|
Gb :----------------|-----------------|--------------------|
B  :----------------|-----------------|--------------------|

============================================================================

Db :----------------|------------------|-----------------|
Ab :----------------|------------------|-----------------|
E  :----------------|------------------|-----------------|
B  :----------------|------------------|7-8-7---7---7-10-|
Gb :----------------|6------------9-10-|------9---9------|
B  :0-5-0-4-7-5-4-8-|--8-0-7-8-10------|-----------------|

Db :----------------|------------------|-----------------|
Ab :----------------|------------------|-----------------|
E  :----------------|------------------|-----------------|
B  :----------------|5-----------------|4----------------|
Gb :----------------|3-----------------|6----------------|
B  :0-5-0-4-7-5-0-5-|5-----------------|4----------------|

E  :----------------|------------------|-----------------|
B  :----------------|------------------|-----------------|
Gb :----------------|------3-----------|--------6--------|
B  :0-0-0-0-0-0-4-5-|5------------5----|4----------------|

Db :----------------|------------------|-----------------|
Ab :----------------|------------------|-----------------|
E  :----------------|------------------|-----------------|
B  :----------------|------------------|-----------------|
Gb :----------------|------------------|-----------------|
B  :----------------|------------------|-----------------|

============================================================================

Db :--------------------|----------------|----------------|
Ab :--------------------|----------------|----------------|
E  :--------------------|----------------|----------------|
B  :--------------------|----------------|----------5---4-|
Gb :5-------------0-----|----------------|5-----6---------|
B  :--8-0-0-0-0-0---4-5-|0-5-0-4-7-5-4-8-|--8-5---4---4---|

Db :--------------------|----------------|----------------|
Ab :--------------------|----------------|----------------|
E  :--------------------|----------------|----------------|
B  :--------------------|----------------|----------1---0-|
Gb :--------------0-----|----------------|1-----3---------|
B  :8-5-0-0-0-0-0---4-5-|0-5-0-4-7-5-0-5-|--5-1---0---0---|

E  :--------------------|----------------|----------------|
B  :--------------------|----------------|----------------|
Gb :--------------------|----------------|------------6-5-|
B  :8-5-0---0---0-0-0-0-|0-0-0-0-0-0-4-5-|8-8-8-8-8-8-----|

Db :--------------------|----------------|----------------|
Ab :--------------------|----------------|----------------|
E  :*-------------------|----------------|----------------|
B  :--------------------|----------------|----------------|
Gb :--------------------|----------------|----------------|
B  :--------------------|----------------|----------------|

============================================================================

Db :-----------------|--------------------|----------------|
Ab :-----------------|--------------------|----------------|
E  :-----------5-----|--------------------|----------------|
B  :/7-5-4-7---------|--------------------|----------------|
Gb :-----------------|5-------------1-----|----------------|
B  :---------4---4-7-|--8-0-0-0-0-0---4-5-|0-5-0-4-7-5-4-8-|

Db :-----------------|--------------------|----------------|
Ab :-----------------|--------------------|----------------|
E  :-----------------|--------------------|----------------|
B  :/4-----4---7-----|--------------------|----------------|
Gb :---6-5-----------|--------------1-----|----------------|
B  :---------0---0-4-|8-5-0-0-0-0-0---4-5-|0-5-0-4-7-5-0-5-|

E  :-----------------|--------------------|----------------|
B  :-4-4-4-4-7-7-7-7-|--------------------|----------------|
Gb :-----------------|--------------------|----------------|
B  :-----------------|8-5-0---0---0-0-0-0-|0-0-0-0-0-0-4-5-|

Db :-----------------|--------------------|----------------|
Ab :-----------------|--------------------|----------------|
E  :-----------------|--------------------|----------------|
B  :-----------------|--------------------|----------------|
Gb :-----------------|--------------------|----------------|
B  :-----------------|--------------------|----------------|

============================================================================

Db :----------------|----------------|----------------|----------------|
Ab :----------------|----------------|----------------|----------------|
E  :----------------|----------------|----------------|----------------|
B  :5---------------|4---------------|0---------------|----------------|
Gb :3---------------|6---------------|0---------------|----------------|
B  :5---------------|4---------------|0---*-------*---|----------------|

Db :----------------|----------------|----------------|----------------|
Ab :----------------|----------------|----------------|----------------|
E  :----------------|----------------|----------------|2-3-2---2-------|
B  :5---------------|4---------------|5-4---------4-5-|------5---5-4-1-|
Gb :3---------------|6---------------|----6-5-6-5-----|----------------|
B  :5---------------|4---------------|----------------|----------------|

E  :----------------|----------------|----------------|----------------|
B  :----------------|----------------|----------------|----------------|
Gb :------3---------|--------6-------|----------------|----------------|
B  :5-----------5---|4---------------|0---*-------*---|----------------|

Db :----------------|----------------|----------------|----------------|
Ab :----------------|----------------|----------------|----------------|
E  :----------------|----------------|----------------|----------------|
B  :----------------|----------------|----------------|----------------|
Gb :----------------|----------------|----------------|----------------|
B  :----------------|----------------|----------------|----------------|

============================================================================

Db :----------------|----------------|----------------|----------------|
Ab :----------------|----------------|----------------|----------------|
E  :----------------|----------------|----------------|----------------|
B  :0---------------|----------------|----------------|----------------|
Gb :0---------------|----------------|----------------|----------------|
B  :0---------------|----------------|----------------|----------------|

Db :----------------|----------------|----------------|----------------|
Ab :----------------|----------------|----------------|----------------|
E  :----------------|----------------|----------------|----------------|
B  :0---------------|----------------|----------------|----------------|
Gb :0---------------|----------------|----------------|----------------|
B  :0---------------|----------------|----------------|----------------|

E  :----------------|----------------|----------------|----------------|
B  :----------------|----------------|----------------|----------------|
Gb :----------------|----------------|----------------|----------------|
B  :0---------------|----------------|----------------|----------------|

Db :----------------|----------------|----------------|----------------|
Ab :----------------|----------------|----------------|----------------|
E  :----------------|2-3-2---2-------|----------------|2-3-2---2-------|
B  :5-4---------4-5-|------5---5-4-1-|5-4---------4-5-|------5---5-4-1-|
Gb :----6-5-6-5-----|----------------|----6-5-6-5-----|----------------|
B  :----------------|----------------|----------------|----------------|

============================================================================

Db :----------------|----------------|----------------|-----------------|
Ab :----------------|----------------|----------------|-----------------|
E  :----------------|----------------|----------------|-----------------|
B  :----------------|----------------|----------------|-----------------|
Gb :----------------|----------------|----------------|-----------------|
B  :----------------|----------------|----------------|-----------------|

Db :----------------|----------------|----------------|-----------------|
Ab :----------------|----------------|----------------|-----------------|
E  :----------------|----------------|----------------|-----------------|
B  :----------------|----------------|----------------|-----------------|
Gb :----------------|----------------|----------------|-----------------|
B  :----------------|----------------|----------------|-----------------|

E  :----------------|----------------|----------------|-----------------|
B  :----------------|----------------|----------------|-----------------|
Gb :----------------|----------------|----------------|-----------------|
B  :----------------|----------------|----------------|-----------------|

Db :----------------|----------------|----------------|-----------------|
Ab :----------------|----------------|----------------|-----------------|
E  :----------------|2-3-2---2-------|----------------|----------7-8-11-|
B  :5-4---------4-5-|------5---5-4-1-|----------------|4-5-4-7-8--------|
Gb :----6-5-6-5-----|----------------|3-----------5-6-|-----------------|
B  :----------------|----------------|--5-0-4-5-7-----|-----------------|

============================================================================

Db :------------------------|-----------------------|
Ab :------------------------|-----------------------|
E  :------------------------|-----------------------|
B  :-------------0----------|-----------------------|
Gb :-------------0----------|-----------------------|
B  :-------------0----------|-----------------------|

Db :------------------------|-----------------------|
Ab :------------------------|-----------------------|
E  :------------------------|-----------------------|
B  :-------------0----------|-----------------------|
Gb :-------------0----------|-----------------------|
B  :-------------0----------|-----------------------|

E  :------------------------|-----------------------|
B  :------------------------|-----------------------|
Gb :------------------------|-----------------------|
B  :-------------0----------|-----------------------|

Db :------------------------|-----------------------|
Ab :------------------------|10-11-10----10---------|
E  :12-11-------------11-12-|---------12----12-11-8-|
B  :------13-12-13-12-------|-----------------------|
Gb :------------------------|-----------------------|
B  :------------------------|-----------------------|

============================================================================

Db :------------------------|-----------------------|
Ab :------------------------|-----------------------|
E  :------------------------|-----------------------|
B  :------------------------|-----------------------|
Gb :------------------------|-----------------------|
B  :------------------------|-----------------------|

Db :------------------------|-----------------------|
Ab :------------------------|-----------------------|
E  :------------------------|-----------------------|
B  :------------------------|-----------------------|
Gb :------------------------|-----------------------|
B  :------------------------|-----------------------|

E  :------------------------|-----------------------|
B  :------------------------|-----------------------|
Gb :------------------------|-----------------------|
B  :------------------------|-----------------------|

Db :------------------------|-----------------------|
Ab :------------------------|10-11-10----10---------|
E  :12-11-------------11-12-|---------12----12-11-8-|
B  :------13-12-13-12-------|-----------------------|
Gb :------------------------|-----------------------|
B  :------------------------|-----------------------|

============================================================================

Db :------------------------|-----------------------|-----------------|
Ab :------------------------|-----------------------|-----------------|
E  :------------------------|-----------------------|-----------------|
B  :------------------------|-----------------------|-----------------|
Gb :------------------------|-----------------------|-----------------|
B  :------------------------|-----------------------|-----------------|

Db :------------------------|-----------------------|-----------------|
Ab :------------------------|-----------------------|-----------------|
E  :------------------------|-----------------------|-----------------|
B  :------------------------|-----------------------|-----------------|
Gb :------------------------|-----------------------|-----------------|
B  :------------------------|-----------------------|-----------------|

E  :------------------------|-----------------------|-----------------|
B  :------------------------|-----------------------|-----------------|
Gb :------------------------|-----------------------|-----------------|
B  :------------------------|-----------------------|-----------------|

Db :------------------------|-----------------------|-----------------|
Ab :------------------------|10-11-10----10---------|-----------------|
E  :12-11-------------11-12-|---------12----12-11-8-|11-8-7-8-5-7-3-5-|
B  :------13-12-13-12-------|-----------------------|-----------------|
Gb :------------------------|-----------------------|-----------------|
B  :------------------------|-----------------------|-----------------|

============================================================================

Db :--------------------------------|--------------------|----------------|
Ab :--------------------------------|--------------------|----------------|
E  :--------------------------------|--------------------|----------------|
B  :--------------------------------|4-------------------|----------------|
Gb :--------------------------------|--------------------|--5---5---5-3-1-|
B  :--------------------------------|----0-0-0*0-0-0*0-5-|8---0---0-------|

Db :--------------------------------|--------------------|----------------|
Ab :--------------------------------|--------------------|----------------|
E  :--------------------------------|--------------------|----------------|
B  :--------------------------------|--------------------|----------------|
Gb :--------------------------------|5-------------------|----------------|
B  :--------------------------------|----0-0-0*0-0-0*0-1-|5-8-0-8-0-8-7-5-|

E  :--------------------------------|--------------------|----------------|
B  :--------------------------------|--------------------|----------------|
Gb :--------------------------------|5-------------------|----------------|
B  :--------------------------------|----0-0-0*0-0-0*0-1-|5-8-0-8-0-8-7-5-|

Db :2-------------------------------|--------------------|----------------|
Ab :---4-3--4--3-1--4--3-1----------|--------------------|----------------|
E  :------------------------2-------|--------------------|----------------|
B  :---------------------------4-1--|0-------------------|----------------|
Gb :--------------------------------|----*---------------|----------------|
B  :--------------------------------|--------------------|----------------|

============================================================================

Db :--------------------|----------------|--------------------|
Ab :--------------------|----------------|--------------------|
E  :--------------------|----------------|--------------------|
B  :5-------------------|----------------|--------------------|
Gb :--------------------|--5---5---5-3-1-|6-------------------|
B  :----0-0-0*0-0-0*0-5-|8---0---0-------|----0-0-0*0-0-0*0-5-|

Db :--------------------|----------------|--------------------|
Ab :--------------------|----------------|--------------------|
E  :--------------------|----------------|--------------------|
B  :--------------------|----------------|--------------------|
Gb :6-------------------|----------------|3-------------------|
B  :----0-0-0*0-0-0*0-1-|5-8-0-8-0-8-7-5-|----0-0-0*0-0-0*0-1-|

E  :--------------------|----------------|--------------------|
B  :--------------------|----------------|--------------------|
Gb :6-------------------|----------------|3-------------------|
B  :----0-0-0*0-0-0*0-1-|5-8-0-8-0-8-7-5-|----0-0-0*0-0-0*0-1-|

Db :--------------------|----------------|--------------------|
Ab :--------------------|----------------|--------------------|
E  :--------------------|----------------|--------------------|
B  :--------------------|----------------|--------------------|
Gb :--------------------|----------------|--------------------|
B  :--------------------|----------------|--------------------|

============================================================================

Db :----------------|--------------------|--------------------|
Ab :----------------|--------------------|--------------------|
E  :----------------|--------------------|--------------------|
B  :----------------|--------------------|--------------------|
Gb :--5---5---5-3-1-|5---------------0-1-|3---------------1-3-|
B  :8---0---0-------|----0-0-0*0-0-0*----|----0-0-0*0-0-0*----|

Db :----------------|--------------------|--------------------|
Ab :----------------|--------------------|--------------------|
E  :----------------|--------------------|--------------------|
B  :----------------|--------------------|--------------------|
Gb :----------------|1-------------------|0-------------------|
B  :5-8-0-8-0-8-7-5-|----0-0-0*0-0-0*4-5-|----0-0-0*0-0-0*5-7-|

E  :----------------|--------------------|--------------------|
B  :----------------|--------------------|--------------------|
Gb :----------------|1-------------------|0-------------------|
B  :5-8-0-8-0-8-7-5-|----0-0-0*0-0-0*4-5-|----0-0-0*0-0-0*5-7-|

Db :----------------|--------------------|--------------------|
Ab :----------------|--------------------|--------------------|
E  :----------------|--------------------|--------------------|
B  :----------------|--------------------|--------------------|
Gb :----------------|--------------------|--------------------|
B  :----------------|--------------------|--------------------|

============================================================================

Db :--------------------|----------------|--------------------|
Ab :--------------------|----------------|--------------------|
E  :--------------------|----------------|--------------------|
B  :4-------------------|----------------|5-------------------|
Gb :--------------------|--5---5---5-3-1-|--------------------|
B  :----0-0-0*0-0-0*0-5-|8---0---0-------|----0-0-0*0-0-0*0-5-|

Db :--------------------|----------------|--------------------|
Ab :--------------------|----------------|--------------------|
E  :--------------------|----------------|--------------------|
B  :--------------------|----------------|--------------------|
Gb :5-------------------|----------------|6-------------------|
B  :----0-0-0*0-0-0*0-1-|5-8-0-8-0-8-7-5-|----0-0-0*0-0-0*0-1-|

E  :--------------------|----------------|--------------------|
B  :--------------------|----------------|--------------------|
Gb :5-------------------|----------------|6-------------------|
B  :----0-0-0*0-0-0*0-1-|5-8-0-8-0-8-7-5-|----0-0-0*0-0-0*0-1-|

Db :--------------------|----------------|--------------------|
Ab :--------------------|----------------|--------------------|
E  :--------------------|----------------|--------------------|
B  :--------------------|----------------|--------------------|
Gb :--------------------|----------------|--------------------|
B  :--------------------|----------------|--------------------|

============================================================================

Db :----------------|--------------------|----------------|
Ab :----------------|--------------------|----------------|
E  :----------------|--------------------|----------------|
B  :----------------|--------------------|----------------|
Gb :--5---5---5-3-1-|6-------------------|--5---5---5-3-1-|
B  :8---0---0-------|----0-0-0*0-0-0*0-5-|8---0---0-------|

Db :----------------|--------------------|----------------|
Ab :----------------|--------------------|----------------|
E  :----------------|--------------------|----------------|
B  :----------------|--------------------|----------------|
Gb :----------------|3-------------------|----------------|
B  :5-8-0-8-0-8-7-5-|----0-0-0*0-0-0*0-1-|5-8-0-8-0-8-7-5-|

E  :----------------|--------------------|----------------|
B  :----------------|--------------------|----------------|
Gb :----------------|3-------------------|----------------|
B  :5-8-0-8-0-8-7-5-|----0-0-0*0-0-0*0-1-|5-8-0-8-0-8-7-5-|

Db :----------------|--------------------|----------------|
Ab :----------------|--------------------|----------------|
E  :----------------|--------------------|----------------|
B  :----------------|--------------------|----------------|
Gb :----------------|--------------------|----------------|
B  :----------------|--------------------|----------------|

============================================================================

Db :--------------------|--------------------|----------------------|
Ab :--------------------|--------------------|----------------------|
E  :--------------------|--------------------|----------------------|
B  :--------------------|--------------------|-4--------------------|
Gb :5---------------0-1-|3---------------1-3-|----------------------|
B  :----0-0-0*0-0-0*----|----0-0-0*0-0-0*----|-----0-0-0*-0-0-0*0-5-|

Db :--------------------|--------------------|----------------------|
Ab :--------------------|--------------------|----------------------|
E  :--------------------|--------------------|----------------------|
B  :--------------------|--------------------|----------------------|
Gb :1-------------------|0-------------------|-5--------------------|
B  :----0-0-0*0-0-0*4-5-|----0-0-0*0-0-0*5-7-|-----0-0-0*-0-0-0*0-1-|

E  :--------------------|--------------------|----------------------|
B  :--------------------|--------------------|----------------------|
Gb :1-------------------|0-------------------|-5--------------------|
B  :----0-0-0*0-0-0*4-5-|----0-0-0*0-0-0*5-7-|-----0-0-0*-0-0-0*0-1-|

Db :--------------------|--------------------|----------------------|
Ab :--------------------|--------------------|10---------11---------|
E  :--------------------|--------------------|----------------------|
B  :--------------------|--------------------|----------------------|
Gb :--------------------|--------------------|----------------------|
B  :--------------------|--------------------|----------------------|

============================================================================

Db :------------------|----------------------|----------------|
Ab :------------------|----------------------|----------------|
E  :------------------|----------------------|----------------|
B  :------------------|-5--------------------|----------------|
Gb :---5---5----5-3-1-|----------------------|--5---5---5-3-1-|
B  :-8---0----0-------|-----0-0-0*-0-0-0*0-4-|8---0---0-------|

Db :------------------|----------------------|----------------|
Ab :------------------|----------------------|----------------|
E  :------------------|----------------------|----------------|
B  :------------------|----------------------|----------------|
Gb :------------------|-6--------------------|----------------|
B  :-5-8-0-8--0-8-7-5-|-----0-0-0*-0-0-0*0-1-|5-8-0-8-0-8-7-5-|

E  :------------------|----------------------|----------------|
B  :------------------|----------------------|----------------|
Gb :------------------|-6--------------------|----------------|
B  :-5-8-0-8--0-8-7-5-|-----0-0-0*-0-0-0*0-1-|5-8-0-8-0-8-7-5-|

Db :------------------|----------------------|----------------|
Ab :------------------|----------------------|----------------|
E  :12-------11-------|----------------------|----------------|
B  :------------------|13---------12---------|----------------|
Gb :------------------|----------------------|----------------|
B  :------------------|----------------------|----------------|

============================================================================

Db :----------------------|------------------|----------------------|
Ab :----------------------|------------------|----------------------|
E  :----------------------|------------------|----------------------|
B  :----------------------|------------------|----------------------|
Gb :-6--------------------|---5---5----5-3-1-|-5----------------0-1-|
B  :-----0-0-0*-0-0-0*0-5-|-8---0----0-------|-----0-0-0*-0-0-0*----|

Db :----------------------|------------------|----------------------|
Ab :----------------------|------------------|----------------------|
E  :----------------------|------------------|----------------------|
B  :----------------------|------------------|----------------------|
Gb :-3--------------------|------------------|-1--------------------|
B  :-----0-0-0*-0-0-0*0-1-|-5-8-0-8--0-8-7-5-|-----0-0-0*-0-0-0*4-5-|

E  :----------------------|------------------|----------------------|
B  :----------------------|------------------|----------------------|
Gb :-3--------------------|------------------|-1--------------------|
B  :-----0-0-0*-0-0-0*0-1-|-5-8-0-8--0-8-7-5-|-----0-0-0*-0-0-0*4-5-|

Db :----------------------|------------------|----------------------|
Ab :10---------11---------|------------------|----------------------|
E  :----------------------|12-------11-------|----------------------|
B  :----------------------|------------------|13---------12---------|
Gb :----------------------|------------------|----------------------|
B  :----------------------|------------------|----------------------|

============================================================================

Db :--------------------|----------------------|------------------|
Ab :--------------------|----------------------|------------------|
E  :--------------------|----------------------|------------------|
B  :--------------------|-4--------------------|------------------|
Gb :3---------------1-3-|----------------------|---5---5----5-3-1-|
B  :----0-0-0*0-0-0*----|-----0-0-0*-0-0-0*0-5-|-8---0----0-------|

Db :--------------------|----------------------|------------------|
Ab :--------------------|----------------------|------------------|
E  :--------------------|----------------------|------------------|
B  :--------------------|----------------------|------------------|
Gb :0-------------------|-5--------------------|------------------|
B  :----0-0-0*0-0-0*5-7-|-----0-0-0*-0-0-0*0-1-|-5-8-0-8--0-8-7-5-|

E  :--------------------|----------------------|------------------|
B  :--------------------|----------------------|------------------|
Gb :0-------------------|-5--------------------|------------------|
B  :----0-0-0*0-0-0*5-7-|-----0-0-0*-0-0-0*0-1-|-5-8-0-8--0-8-7-5-|

Db :--------------------|----------------------|------------------|
Ab :--------------------|10---------11---------|------------------|
E  :--------------------|----------------------|12-------11-------|
B  :--------------------|----------------------|------------------|
Gb :--------------------|----------------------|------------------|
B  :--------------------|----------------------|------------------|

============================================================================

Db :----------------------|----------------|----------------------|
Ab :----------------------|----------------|----------------------|
E  :----------------------|----------------|----------------------|
B  :-5--------------------|----------------|----------------------|
Gb :----------------------|--5---5---5-3-1-|-6--------------------|
B  :-----0-0-0*-0-0-0*0-5-|8---0---0-------|-----0-0-0*-0-0-0*0-5-|

Db :----------------------|----------------|----------------------|
Ab :----------------------|----------------|----------------------|
E  :----------------------|----------------|----------------------|
B  :----------------------|----------------|----------------------|
Gb :-6--------------------|----------------|-3--------------------|
B  :-----0-0-0*-0-0-0*0-1-|5-8-0-8-0-8-7-5-|-----0-0-0*-0-0-0*0-1-|

E  :----------------------|----------------|----------------------|
B  :----------------------|----------------|----------------------|
Gb :-6--------------------|----------------|-3--------------------|
B  :-----0-0-0*-0-0-0*0-1-|5-8-0-8-0-8-7-5-|-----0-0-0*-0-0-0*0-1-|

Db :----------------------|----------------|----------------------|
Ab :----------------------|----------------|10---------11---------|
E  :----------------------|----------------|----------------------|
B  :13---------12---------|----------------|----------------------|
Gb :----------------------|----------------|----------------------|
B  :----------------------|----------------|----------------------|

============================================================================

Db :------------------|----------------------|--------------------|
Ab :------------------|----------------------|--------------------|
E  :------------------|----------------------|--------------------|
B  :------------------|----------------------|--------------------|
Gb :---5---5----5-3-1-|-5----------------0-1-|3---------------1-3-|
B  :-8---0----0-------|-----0-0-0*-0-0-0*----|----0-0-0*0-0-0*----|

Db :------------------|----------------------|--------------------|
Ab :------------------|----------------------|--------------------|
E  :------------------|----------------------|--------------------|
B  :------------------|----------------------|--------------------|
Gb :------------------|-1--------------------|0-------------------|
B  :-5-8-0-8--0-8-7-5-|-----0-0-0*-0-0-0*4-5-|----0-0-0*0-0-0*5-7-|

E  :------------------|----------------------|--------------------|
B  :------------------|----------------------|--------------------|
Gb :------------------|-1--------------------|0-------------------|
B  :-5-8-0-8--0-8-7-5-|-----0-0-0*-0-0-0*4-5-|----0-0-0*0-0-0*5-7-|

Db :------------------|----------------------|--------------------|
Ab :------------------|----------------------|--------------------|
E  :12-------11-------|----------------------|--------------------|
B  :------------------|13---------12---------|--------------------|
Gb :------------------|----------------------|--------------------|
B  :------------------|----------------------|--------------------|

============================================================================

Db :------------------|------------------|------------------|
Ab :------------------|------------------|------------------|
E  :------------------|------------------|------------------|
B  :-0----------------|------------------|------------------|
Gb :-0----------------|------------------|------------------|
B  :-0----------------|------------------|------------------|

Db :------------------|------------------|------------------|
Ab :------------------|------------------|------------------|
E  :------------------|------------------|------------------|
B  :-0----------------|------------------|------------------|
Gb :-0----------------|------------------|------------------|
B  :-0----------------|------------------|------------------|

E  :------------------|------------------|------------------|
B  :------------------|------------------|------------------|
Gb :------------------|------------------|------------------|
B  :-0----------------|------------------|------------------|

Db :------------------|------------------|------------------|
Ab :10-------11-------|------------------|------------------|
E  :------------------|12-------11-------|------------------|
B  :------------------|------------------|13-------12-------|
Gb :------------------|------------------|------------------|
B  :------------------|------------------|------------------|

============================================================================

Db :----------------|------------------|------------------|
Ab :----------------|------------------|------------------|
E  :----------------|------------------|------------------|
B  :----------------|------------------|------------------|
Gb :--------0---0---|-0---*------------|------------------|
B  :--------0---0---|-0----------------|------------------|

Db :----------------|------------------|------------------|
Ab :----------------|------------------|------------------|
E  :----------------|------------------|------------------|
B  :----------------|------------------|------------------|
Gb :--------0---0---|-0---*------------|------------------|
B  :--------0---0---|-0----------------|------------------|

E  :----------------|------------------|------------------|
B  :----------------|------------------|------------------|
Gb :----------------|------------------|------------------|
B  :--------0---0---|-0---*------------|------------------|

Db :----------------|------------------|------------------|
Ab :----------------|10-------11-------|------------------|
E  :----------------|------------------|12-------11-------|
B  :----------------|------------------|------------------|
Gb :----------------|------------------|------------------|
B  :----------------|------------------|------------------|

============================================================================

Db :------------------|----------------|-------------------------------|
Ab :------------------|----------------|-------------------------------|
E  :------------------|----------------|-------------------------------|
B  :------------------|----------------|-------------------------------|
Gb :------------------|----------------|0-0-0-0-0-0-0-0-1-1-1-1-1-1-1-1|
B  :------------------|------------*---|-------------------------------|

Db :------------------|----------------|-------------------------------|
Ab :------------------|----------------|-------------------------------|
E  :------------------|----------------|-------------------------------|
B  :------------------|----------------|-------------------------------|
Gb :------------------|----------------|3-3-3-3-3-3-3-3-5-5-5-5-5-5-5-5|
B  :------------------|------------*---|-------------------------------|

E  :------------------|----------------|-------------------------------|
B  :------------------|----------------|-------------------------------|
Gb :------------------|----------------|0---0---0---0---1---1---1---1--|
B  :------------------|------------*---|-------------------------------|

Db :------------------|----------------|-------------------------------|
Ab :------------------|------------*---|*------------------------------|
E  :------------------|----------------|-------------------------------|
B  :13-------12-------|----------------|-------------------------------|
Gb :------------------|----------------|-------------------------------|
B  :------------------|----------------|-------------------------------|

============================================================================

Db :-------------------------------|-------------------------------|
Ab :-------------------------------|-------------------------------|
E  :-------------------------------|-------------------------------|
B  :-------------------------------|-------------------------------|
Gb :-------------------------------|-------------------------------|
B  :5-5-5-5-5-5-5-5-4-4-4-4-4-4-4-4|1-1-1-1-1-1-1-1-0-0-0-0-0-0-0-0|

Db :-------------------------------|-------------------------------|
Ab :-------------------------------|-------------------------------|
E  :-------------------------------|-------------------------------|
B  :-------------------------------|-------------------------------|
Gb :1-1-1-1-1-1-1-1-0-0-0-0-0-0-0-0|-------------------------------|
B  :-------------------------------|5-5-5-5-5-5-5-5-4-4-4-4-4-4-4-4|

E  :-------------------------------|-------------------------------|
B  :-------------------------------|-------------------------------|
Gb :-------------------------------|-------------------------------|
B  :5---5---5---5---4---4---4---4--|1---1---1---1---0---0---0---0--|

Db :-------------------------------|-------------------------------|
Ab :-------------------------------|-------------------------------|
E  :-------------------------------|-------------------------------|
B  :-------------------------------|-------------------------------|
Gb :-------------------------------|-------------------------------|
B  :-------------------------------|-------------------------------|

============================================================================

Db :-------------------------------|-------------------------------|
Ab :-------------------------------|-------------------------------|
E  :-------------------------------|-------------------------------|
B  :-------------------------------|-------------------------------|
Gb :-------------------------------|0-0-0-0-0-0-0-0-1-1-1-1-1-1-1-1|
B  :0-0-0-0-0-0-0-0-0-0-0-0-0-0-0-0|-------------------------------|

Db :-------------------------------|-------------------------------|
Ab :-------------------------------|-------------------------------|
E  :-------------------------------|-------------------------------|
B  :-------------------------------|-------------------------------|
Gb :-------------------------------|3-3-3-3-3-3-3-3-5-5-5-5-5-5-5-5|
B  :4-4-4-4-4-4-4-4-4-4-4-4-4-4-4-4|-------------------------------|

E  :-------------------------------|-------------------------------|
B  :-------------------------------|-------------------------------|
Gb :-------------------------------|0---0---0---0---1---1---1---1--|
B  :0---0---0---0---0---0---0---0--|-------------------------------|

Db :-------------------------------|-------------------------------|
Ab :-------------------------------|-------------------------------|
E  :-------------------------------|-------------------------------|
B  :-------------------------------|-------------------------------|
Gb :-------------------------------|-------------------------------|
B  :-------------------------------|-------------------------------|

============================================================================

Db :-------------------------------|-------------------------------|
Ab :-------------------------------|-------------------------------|
E  :-------------------------------|-------------------------------|
B  :-------------------------------|-------------------------------|
Gb :-------------------------------|-------------------------------|
B  :5-5-5-5-5-5-5-5-4-4-4-4-4-4-4-4|1-1-1-1-1-1-1-1-0-0-0-0-0-0-0-0|

Db :-------------------------------|-------------------------------|
Ab :-------------------------------|-------------------------------|
E  :-------------------------------|-------------------------------|
B  :-------------------------------|-------------------------------|
Gb :1-1-1-1-1-1-1-1-0-0-0-0-0-0-0-0|-------------------------------|
B  :-------------------------------|5-5-5-5-5-5-5-5-4-4-4-4-4-4-4-4|

E  :-------------------------------|-------------------------------|
B  :-------------------------------|-------------------------------|
Gb :-------------------------------|-------------------------------|
B  :5---5---5---5---4---4---4---4--|1---1---1---1---0---0---0---0--|

Db :-------------------------------|-------------------------------|
Ab :-------------------------------|-------------------------------|
E  :-------------------------------|-------------------------------|
B  :-------------------------------|-------------------------------|
Gb :-------------------------------|-------------------------------|
B  :-------------------------------|-------------------------------|

============================================================================

Db :-------------------------------|-------------------------------|
Ab :-------------------------------|-------------------------------|
E  :-------------------------------|-------------------------------|
B  :-------------------------------|-------------------------------|
Gb :-------------------------------|0-0-0-0-0-0-0-0-1-1-1-1-1-1-1-1|
B  :0-0-0-0-0-0-0-0-0-0-0-0-0-0-0-0|-------------------------------|

Db :-------------------------------|-------------------------------|
Ab :-------------------------------|-------------------------------|
E  :-------------------------------|-------------------------------|
B  :-------------------------------|-------------------------------|
Gb :-------------------------------|3-3-3-3-3-3-3-3-5-5-5-5-5-5-5-5|
B  :4-4-4-4-4-4-4-4-4-4-4-4-4-4-4-4|-------------------------------|

E  :-------------------------------|-------------------------------|
B  :-------------------------------|-------------------------------|
Gb :-------------------------------|0---0---0---0---1---1---1---1--|
B  :0---0---0---0---0---0---0---0--|-------------------------------|

Db :-------------------------------|-------------------------------|
Ab :-------------------------------|-------------------------------|
E  :-------------------------------|-------------------------------|
B  :-------------------------------|-------------------------------|
Gb :-------------------------------|-------------------------------|
B  :-------------------------------|-------------------------------|

============================================================================

Db :-------------------------------|-------------------------------|
Ab :-------------------------------|-------------------------------|
E  :-------------------------------|-------------------------------|
B  :-------------------------------|-------------------------------|
Gb :-------------------------------|-------------------------------|
B  :5-5-5-5-5-5-5-5-4-4-4-4-4-4-4-4|1-1-1-1-1-1-1-1-0-0-0-0-0-0-0-0|

Db :-------------------------------|-------------------------------|
Ab :-------------------------------|-------------------------------|
E  :-------------------------------|-------------------------------|
B  :-------------------------------|-------------------------------|
Gb :1-1-1-1-1-1-1-1-0-0-0-0-0-0-0-0|-------------------------------|
B  :-------------------------------|5-5-5-5-5-5-5-5-4-4-4-4-4-4-4-4|

E  :-------------------------------|-------------------------------|
B  :-------------------------------|-------------------------------|
Gb :-------------------------------|-------------------------------|
B  :5---5---5---5---4---4---4---4--|1---1---1---1---0---0---0---0--|

Db :-------------------------------|-------------------------------|
Ab :-------------------------------|-------------------------------|
E  :-------------------------------|-------------------------------|
B  :-------------------------------|-------------------------------|
Gb :-------------------------------|-------------------------------|
B  :-------------------------------|-------------------------------|

============================================================================

Db :-------------------------------|-------------------------------|
Ab :-------------------------------|-------------------------------|
E  :-------------------------------|-------------------------------|
B  :-------------------------------|-------------------------------|
Gb :-------------------------------|0-0-0-0-0-0-0-0-1-1-1-1-1-1-1-1|
B  :0-0-0-0-0-0-0-0-0-0-0-0-0-0-0-0|-------------------------------|

Db :-------------------------------|-------------------------------|
Ab :-------------------------------|-------------------------------|
E  :-------------------------------|-------------------------------|
B  :-------------------------------|-------------------------------|
Gb :-------------------------------|3-3-3-3-3-3-3-3-5-5-5-5-5-5-5-5|
B  :4-4-4-4-4-4-4-4-4-4-4-4-4-4-4-4|-------------------------------|

E  :-------------------------------|-------------------------------|
B  :-------------------------------|-------------------------------|
Gb :-------------------------------|0---0---0---0---1---1---1---1--|
B  :0---0---0---0---0---0---0---0--|-------------------------------|

Db :-------------------------------|-------------------------------|
Ab :-------------------------------|-------------------------------|
E  :-------------------------------|-------------------------------|
B  :-------------------------------|-------------------------------|
Gb :-------------------------------|-------------------------------|
B  :-------------------------------|-------------------------------|

============================================================================

Db :-------------------------------|-------------------------------|
Ab :-------------------------------|-------------------------------|
E  :-------------------------------|-------------------------------|
B  :-------------------------------|-------------------------------|
Gb :-------------------------------|-------------------------------|
B  :5-5-5-5-5-5-5-5-4-4-4-4-4-4-4-4|1-1-1-1-1-1-1-1-0-0-0-0-0-0-0-0|

Db :-------------------------------|-------------------------------|
Ab :-------------------------------|-------------------------------|
E  :-------------------------------|-------------------------------|
B  :-------------------------------|-------------------------------|
Gb :1-1-1-1-1-1-1-1-0-0-0-0-0-0-0-0|-------------------------------|
B  :-------------------------------|5-5-5-5-5-5-5-5-4-4-4-4-4-4-4-4|

E  :-------------------------------|-------------------------------|
B  :-------------------------------|-------------------------------|
Gb :-------------------------------|-------------------------------|
B  :5---5---5---5---4---4---4---4--|1---1---1---1---0---0---0---0--|

Db :-------------------------------|-------------------------------|
Ab :-------------------------------|-------------------------------|
E  :-------------------------------|-------------------------------|
B  :-------------------------------|-------------------------------|
Gb :-------------------------------|-------------------------------|
B  :-------------------------------|-------------------------------|

============================================================================

Db :-------------------------------|----------------|----------------|
Ab :-------------------------------|----------------|----------------|
E  :-------------------------------|----------------|----------------|
B  :-------------------------------|0---------------|----------------|
Gb :-------------------------------|0---------------|----------------|
B  :0-0-0-0-0-0-0-0-0-0-0-0-0-0-0-0|0---------------|----------------|

Db :-------------------------------|----------------|----------------|
Ab :-------------------------------|----------------|----------------|
E  :-------------------------------|----------------|----------------|
B  :-------------------------------|0---------------|----------------|
Gb :-------------------------------|0---------------|----------------|
B  :4-4-4-4-4-4-4-4-4-4-4-4-4-4-4-4|0---------------|----------------|

E  :-------------------------------|----------------|----------------|
B  :-------------------------------|----------------|----------------|
Gb :-------------------------------|----------------|----------------|
B  :0---0---0---0---0---0---0---0--|0---------------|----------------|

Db :-------------------------------|----------------|----------------|
Ab :-------------------------------|----------------|----------------|
E  :-------------------------------|----------------|----------------|
B  :-------------------------------|----------------|----------------|
Gb :-------------------------------|----------------|----------------|
B  :-------------------------------|----------------|----------------|

============================================================================
Добавлено: 25.08.2013
Другие материалы по этой песне:
  • Аккорды и текст

Страница создана 25.08.2013
http://primanota.ru/misc-unsigned-bands/dark-sermon-from-eden-chords.htm
Привет, Гость.
Предлагаем пройти революционный курс по гитаре.
Подарок от PrimaNota.Ru, забирай!