PrimaNota.ru - самый крупный в мире бесплатный архив песенных текстов, аккордов, табулатур и нот


Misc Unsigned Bands - David Benson - Holy Psychotherapy - таба

Регистрация Запомнить меня
Войти через:  Facebook Google Twitter Vk Yandex Mail.ru

Misc Unsigned Bands - David Benson - Holy Psychotherapy - таба

Печатать
Просмотров: 82
Уроки эстрадного вокала в Санкт-Петербурге
Artist: David Benson
Album: Holy Psychotherapy
Song: Holy Psychotherapy
Year: 1994

INTRO: Lead
e|------------------------------------------------------|
B|------------------------------------------------------|
G|------------2-4-2-------------------------------------|
D|-2--4-2-4-5-------------------------------------------|
A|------------------------------------------------------|
E|------------------------------------------------------| Repeat this riff until verse.

INTRO: Rhythm
e|------------------------------------------------------|
B|------------------------------------------------------|
G|------------------------------------------------------|
D|------------------------------------------------------|
A|------------------------------------------------------|
E|-0-0-------------------0-0----------------------------| Repeat this riff until verse.
      .                      .

VERSE: Lead
e|----------7-5-----|------------7-5-|-------------------------------------------|
B|-5-7-8---------5--|---5-7-8--------|-----------------9-11-9--5--8--5-----------|
G|------------------|----------------|---9b-11-9-11-12------------------7--10--7-|
D|------------------|----------------|-------------------------------------------|
A|------------------|----------------|-------------------------------------------|
E|------------------|----------------|-------------------------------------------| Play 
this riff before the previous riff.

VERSE: Rhythm
e|-------------------------------------------------------|
B|-------------------------------------------------------|
G|-------------------------------------------------------|
D|-------------------------------------------------------|
A|-------------------------------------------------------|
E|-0--0-0--0--0--0---0--0--0--0--0--0---0--0--0---0--0-0-|
         .        .         .        .         .        .
PRE - CHORUS: Lead
e|------------------------------------------------------|
B|------------------------------------------------------|
G|------------2-4-2-------------------------------------|
D|-2--4-2-4-5-------------------------------------------|
A|------------------------------------------------------|
E|------------------------------------------------------| 1x

PRE - CHORUS: Rhythm
e|------------------------------------------------------|
B|------------------------------------------------------|
G|------------------------------------------------------|
D|------------------------------------------------------|
A|------------------------------------------------------|
E|-0-0-------------------0-0----------------------------| 1x
      .                      .



CHORUS: Rhythm
e|---------|-------------------------|--------------------|
B|---------|-------------------------|--------------------|
G|-5--7--5-|--5--7--5--5--5----------|--------------------|
D|-5--7--5-|--5--7--5--5--5----------|-4-4-5-4------------|
A|-3--5--3-|--3--5--3--3--3----------|-4-4-5-4------------|
E|---------|-----------------0-0-0-0-|-2-2-3-2------------|
                              . . . .

CHORUS: Lead
e|------------------------------------------------------|
B|-------5-7-9-7-5--------7-9-11-9-7--9--7--5-----------|
G|-5-7-8-----------7-9-10-------------------------------|
D|------------------------------------------------------|
A|------------------------------------------------------|
E|------------------------------------------------------|

POST - CHORUS: Lead
e|------------------------------------------------------|
B|------------------------------------------------------|
G|------------2-4-2-------------------------------------|
D|-2--4-2-4-5-------------------------------------------|
A|------------------------------------------------------|
E|------------------------------------------------------|

POST - CHORUS: Rhythm
e|------------------------------------------------------|
B|------------------------------------------------------|
G|------------------------------------------------------|
D|------------------------------------------------------|
A|------------------------------------------------------|
E|-0-0-------------------0-0----------------------------|
      .                      .

VERSE: Lead
e|----------7-5-----|------------7-5-|-------------------------------------------|
B|-5-7-8---------5--|---5-7-8--------|-----------------9-11-9--5--8--5-----------|
G|------------------|----------------|---9b-11-9-11-12------------------7--10--7-|
D|------------------|----------------|-------------------------------------------|
A|------------------|----------------|-------------------------------------------|
E|------------------|----------------|-------------------------------------------|

VERSE: Rhythm
e|-------------------------------------------------------|
B|-------------------------------------------------------|
G|-------------------------------------------------------|
D|-------------------------------------------------------|
A|-------------------------------------------------------|
E|-0--0-0--0--0--0---0--0--0--0--0--0---0--0--0---0--0-0-|
         .        .         .        .         .        .
PRE - CHORUS: Lead
e|------------------------------------------------------|
B|------------------------------------------------------|
G|------------2-4-2-------------------------------------|
D|-2--4-2-4-5-------------------------------------------|
A|------------------------------------------------------|
E|------------------------------------------------------| 2x

PRE - CHORUS: Rhythm
e|------------------------------------------------------|
B|------------------------------------------------------|
G|------------------------------------------------------|
D|------------------------------------------------------|
A|------------------------------------------------------|
E|-0-0-------------------0-0----------------------------| 2x
      .                      .

CHORUS: Rhythm
e|-------------------------|--------------------|
B|-------------------------|--------------------|
G|-5--7--5--5--5-----------|--------------------|
D|-5--7--5--5--5-----------|-4-4-5-4------------|
A|-3--5--3--3--3-----------|-4-4-5-4------------|
E|-----------------0-0-0-0-|-2-2-3-2------------|
                   . . . .

CHORUS: Lead
e|------------------------------------------------------|
B|-------5-7-9-7-5--------7-9-11-9-7--9--7--5-----------|
G|-5-7-8-----------7-9-10-------------------------------|
D|------------------------------------------------------|
A|------------------------------------------------------|
E|------------------------------------------------------|

INTERLUDE
e|---------------------|-----|----------------------------|
B|---------------------|-----|----------------------------|
G|---------------------|-----|--4-5-4-5-------------------|
D|-4-4-4--4-4-4--5-5-5-|-----|--4-5-4-5-------------------|
A|-4-4-4--4-4-4--5-5-5-|-----|--2-3-2-3-------------------| Repeat these riffs until guitar solo.
E|-2-2-2--2-2-2--3-3-3-|--3*-|----------------------------| Play the pinch harmonic with 
the first riff but when you do don't play the power - chord on the third fret.

SOLO
e|---------------------------------------5-7---------9--|
B|---------5-7b----------7-5-------5-7-9-----9h11h12----|
G|-5-5-7b--------8-8-7-5-----5-5-7----------------------|
D|------------------------------------------------------|
A|------------------------------------------------------|
E|------------------------------------------------------|

e|-9b------------16h18h19-19b---------------------------|
B|----9-16h18h19--------------19h18h16-12---------------|
G|------------------------------------------------------|
D|----------------------------------------14-16-16-14---|
A|------------------------------------------------------|
E|------------------------------------------------------|

e|------------------------------------------------------|
B|------------------------------------------------------|
G|----------------14-------14-16-14----------16h18h19---|
D|-14-16-16-14-14----14-14----------17-16-14------------|
A|------------------------------------------------------|
E|------------------------------------------------------|

e|------------------------16b-16rb----------------------|
B|-16b-19h16-19b-16h18h19----------16b-16rb-------------|
G|------------------------------------------------------|
D|------------------------------------------------------|
A|------------------------------------------------------|
E|------------------------------------------------------|

SOLO BACKING: Rhythm
e|------------------------------------------------------|
B|------------------------------------------------------|
G|------------------------------------------------------|
D|-2--2--2--2--2--2--2--2--2--2--2--2--2--2--2----------|
A|-2--2--2--2--2--2--2--2--2--2--2--2--2--2--2----------|
E|-0--0--0--0--0--0--0--0--0--0--0--0--0--0--0----------| Repeat this riff until solo is over.

SOLO BACKING: Lead
e|------------------------------------------------------|
B|------------------------------------------------------|
G|------------2-4-2-------------------------------------|
D|-2--4-2-4-5-------------------------------------------|
A|------------------------------------------------------|
E|------------------------------------------------------| Reepeat this riff until solo 
is over.


CHORUS: Rhythm              OUTRO: Rhythm
e|-------------------------|--------------------|
B|-------------------------|--------------------|
G|-5--7--5--5--5-----------|-5--7---------------|
D|-5--7--5--5--5-----------|-5--7---------------|
A|-3--5--3--3--3-----------|-3--5---------------|
E|-----------------0-0-0-0-|--------------------| Repeat this riff until fade - out.
                   . . . .
  CHORUS: Lead            OUTRO: Lead
e|-----------------------|-------------------------------|
B|-------5-7-9-7-5-------|-7-9-11-9-7--9--7--5-----------|
G|-5-7-8-----------7-9-10|-------------------------------|
D|-----------------------|-------------------------------|
A|-----------------------|-------------------------------|
E|-----------------------|-------------------------------| Repeat this riff until fade - out

FADE - OUT

Used Tab Symbols
_____________________
 h  = Hammer On
 p  = Pull Off
 ~  = Sustain
 v  = Vibrato
 w  = Wide Vibrato
 b  = Bend Up
 hb = Bend Halfway
 /  = Slide Up
 \  = Slide Down
 *  = Pinch Harmonic
 x  = Muted Note
 H  = Harmonic
 t  = Right Hand Tap
 :  = Let Ring
 . = Palm mute (PM)
 rb = release bend
_____________________
Добавлено: 08.12.2013
Другие материалы по этой песне:
  • Аккорды и текст

Страница создана 08.12.2013
http://primanota.ru/misc-unsigned-bands/david-benson-holy-psychotherapy-chords.htm
Привет, Гость.
Предлагаем пройти революционный курс по гитаре.
Подарок от PrimaNota.Ru, забирай!