PrimaNota.ru - самый крупный в мире бесплатный архив песенных текстов, аккордов, табулатур и нот


Misc Unsigned Bands - Deez Nuts - Theres A Party Over Here - бас-таба

Регистрация Запомнить меня
Войти через:  Facebook Google Twitter Vk Yandex Mail.ru

Misc Unsigned Bands - Deez Nuts - Theres A Party Over Here - бас-таба

Печатать
Просмотров: 36
Deez Nuts- Theres a party over here

INTRO:
F|----------------------------------------------|
C|--6-66---2-22---------------------------------|       x2
G|-----------------0-00---44-4444---------------|
C|----------------------------------------------|

F|----------------------------------------------|
C|----------------------------------------------|     
G|----------------------------------------------|
C|0-3 00336-----0-3 00336-0~~-------------------|

F|----------------------------------------------|
C|----------------------------------------------|     
G|----------------------------------------------|
C|--00-000-010-000-000-000-03-06-01-------------|

F|----------------------------------------------|
C|----------------------------------------------|     
G|----------------------------------------------|
C|00-000-020-000-000-000-03-00336---------------|

F|----------------------------------------------|
C|----------------------------------------------|     
G|----------------------------------------------|
C|--00-000-010-000-000-000-03-06-01-------------|

F|------------------------------------------------|
C|------------------------------------------------|     
G|------------------------5555555555555555--------| |PICK SCRAPE|
C|00-000-010-000-0--------------------------------|



VERSE:
F|-------------------------------------------------|
C|-------------------------------------------------|
G|--------------55-555-555-555---------------------|
C|---00-000-0---------------------3-06-01----------|
                                                                              X2
F|-------------------------------------------------|
C|-------------------------------------------------|     
G|--------------55-555-5---------------------------|
C|---00-000-0-----------33-333-03-00336------------|



F|-------------------------------------------------|
C|-------------------------------------------------|
G|-------------------------------------------------|        X2
C|--00----------0-00-------3-6-1-------------------|


CHORUS:
F|-------------------------------------------------|
C|-------------------------------------------------|
G|--------5~---------------------------------------|     X2
C|--0~----------3~--00361--------------------------|

F|-------------------------------------------------|
C|-------------------------------------------------|
G|--------5~---------------------------------------|     
C|--0~----------3~--03-00336--03-00336-------------|






VERSE:
F|-------------------------------------------------|
C|-------------------------------------------------|
G|--------------55-555-555-555---------------------|
C|---00-000-0---------------------3-06-01----------|
                                                                              X2
F|-------------------------------------------------|
C|-------------------------------------------------|     
G|--------------55-555-5---------------------------|
C|---00-000-0-----------33-333-03-00336------------|


F|-------------------------------------------------|
C|-------------------------------------------------|
G|-------------------------------------------------|        X2
C|--00----------0-00-------3-6-1-------------------|

CHORUS:
F|-------------------------------------------------|
C|-------------------------------------------------|
G|--------5~---------------------------------------|     X2
C|--0~----------3~--00361--------------------------|

F|-------------------------------------------------|
C|-------------------------------------------------|
G|--------5~---------------------------------------|     
C|--0~----------3~--03-00336--03-00336-------------|



Добавлено: 08.12.2013
Другие материалы по этой песне:
  • Аккорды и текст

Страница создана 08.12.2013
http://primanota.ru/misc-unsigned-bands/deez-nuts-theres-a-party-over-here-chords.htm
Привет, Гость.
Предлагаем пройти революционный курс по гитаре.
Подарок от PrimaNota.Ru, забирай!