PrimaNota.ru - самый крупный в мире бесплатный архив песенных текстов, аккордов, табулатур и нот


Misc Unsigned Bands - Clara Klein - Madman - таба

Регистрация Запомнить меня
Войти через:  Facebook Google Twitter Vk Yandex Mail.ru

Misc Unsigned Bands - Clara Klein - Madman - таба

Печатать
Просмотров: 223
Уроки эстрадного вокала в Санкт-Петербурге
Madman- Clara Klein

Intro   (same as beginning of verse)
                D                       D
e|----------2----2---------------2-----2----------7-5---7-------7--5-7-5h7-5-2--------|
B|------------3----------------------3----------3--------------3----------------------|
G|-------2---------------------2---------------0---------------0----------------------|
D|--0---------------------0-----------------------------------------------------------|
A|------------------------------------------------------------------------------------|
E|------------------------------------------------------------------------------------|
(repeat) You know a madman
You keep on smiling- I watch you run hide
I don't know a thing

e|---9h7-9---------9h7-9------7---5--7------7--5-7--------9-7-9-----9h7-9-10--9-----|
B|--5------------5-----------3-------------3-------------5---------5----------------|
G|-2----------2------------0------------0-------------2----------2------------------|
D|----------------------------------------------------------------------------------|
A|----------------------------------------------------------------------------------|
E|----------------------------------------------------------------------------------|
Who else- will decide?

                D                       D
e|--------2----2---3--2------------------------7-5---7-------7--5--7-5h7-5-2----------|
B|----------3-------------3-------------------3--------------3------------------------|
G|-----2----------------------------------0---------------0---------------------------|
D|--0---------------------------------------------------------------------------------|
A|------------------------------------------------------------------------------------|
E|------------------------------------------------------------------------------------|
Will you, make up your mind?
(repeat interlude)
                D                       D
e|----------2----2---------------2-----2----------7--5---7-------7--5-7-5h7-5-2-------|
B|------------3----------------------3----------3--------------3----------------------|
G|-------2---------------------2--------------0-------------0-------------------------|
D|--0---------------------0-----------------------------------------------------------|
A|------------------------------------------------------------------------------------|
E|------------------------------------------------------------------------------------|
(repeat) In your head, God knows
Everyone's dying, your true man shows
The whole world, lying

e|---9h7-9---------9h7-9------7---5--7------7-5-7--------9-7-9-----9h7-9-10--9------|
B|--5------------5-----------3-------------3-------------5---------5----------------|
G|-2----------2------------0------------0-------------2----------2------------------|
D|----------------------------------------------------------------------------------|
A|----------------------------------------------------------------------------------|
E|----------------------------------------------------------------------------------|
Who else- will decide?

                D                       D
e|--------2----2---3--2------------------------7-5---7-------7--5-7-5h7-5-2-----------|
B|----------3-------------3-------------------3--------------3------------------------|
G|-----2----------------------------------0---------------0---------------------------|
D|--0---------------------------------------------------------------------------------|
A|------------------------------------------------------------------------------------|
E|------------------------------------------------------------------------------------|
We all make up your mind
(repeat interlude)

 (strum here, listen to the recording for rhythm)
       Bm       D    G   G    Bm   D   G  G
e|-------2----2----3--------------------------------------------------|
B|------3----3----3---------------------------------------------------|
G|------4----2----4---------------------------------------------------|
D|------4----0----5---------------------------------------------------|
A|------2----0----5---------------------------------------------------|
E|------2----x----3---------------------------------------------------|
We're out of our place
We'll send you away (x4)
        Away, away
        D                       D
e|----------2----2---------------2-----2----------7-5---7-------7--5-7-5h7-5-2--------|
B|------------3----------------------3----------3--------------3----------------------|
G|-------2---------------------2---------------0---------------0----------------------|
D|--0---------------------0-----------------------------------------------------------|
A|------------------------------------------------------------------------------------|
E|------------------------------------------------------------------------------------|
(repeat) In here, blue matter
Takes great hostages, while we climb ladders
Reach bigger cages (only play the second part of the line)


| /  slide up
| \  slide down
| h  hammer-on
| p  pull-off
| ~  vibrato
| +  harmonic
| x  Mute note
Добавлено: 29.11.2013
Другие материалы по этой песне:
  • Аккорды и текст

Страница создана 29.11.2013
http://primanota.ru/misc-unsigned-bands/clara-klein-madman-chords.htm
Привет, Гость.
Предлагаем пройти революционный курс по гитаре.
Подарок от PrimaNota.Ru, забирай!