PrimaNota.ru - самый крупный в мире бесплатный архив песенных текстов, аккордов, табулатур и нот


Misc Unsigned Bands - Bloodstains - Out Of Vogue - таба

Регистрация Запомнить меня
Войти через:  Facebook Google Twitter Vk Yandex Mail.ru

Misc Unsigned Bands - Bloodstains - Out Of Vogue - таба

Печатать
Просмотров: 57
Уроки эстрадного вокала в Санкт-Петербурге
Bloodstains - Out of Vogue


Play all Verses like this
---------------------------------------------------|
---------------------------------------------------|
---------------------------------------------------|
--9-9-9-9--7-7-7-7--9-9-9-9--5-5-5-5---------------|
--9-9-9-9--7-7-7-7--9-9-9-9--5-5-5-5---------------|
--7-7-7-7--5-5-5-5--7-7-7-7--3-3-3-3---------------|   (4x)


Refrain:
---------------------------------------------------|
---------------------------------------------------|
---------------------------------------------------|
--9-9-9-9--7-7-7-7--5-5-5-5--7-7-7-7---------------|
--9-9-9-9--7-7-7-7--5-5-5-5--7-7-7-7---------------|
--7-7-7-7--5-5-5-5--3-3-3-3--5-5-5-5---------------|   (2x)



http://www.myspace.com/bloodstains03
Добавлено: 06.02.2014
Другие материалы по этой песне:
  • Аккорды и текст

Страница создана 06.02.2014
http://primanota.ru/misc-unsigned-bands/bloodstains-out-of-vogue-chords.htm
Привет, Гость.
Предлагаем пройти революционный курс по гитаре.
Подарок от PrimaNota.Ru, забирай!