PrimaNota.ru - самый крупный в мире бесплатный архив песенных текстов, аккордов, табулатур и нот


Misc Unsigned Bands - Blue Van - Silly Boy - таба, видео

Регистрация Запомнить меня
Войти через:  Facebook Google Twitter Vk Yandex Mail.ru

Misc Unsigned Bands - Blue Van - Silly Boy - таба, видео

Печатать
Просмотров: 41
e|--------------------------------------------------------------------------|
B|--------------------------------------------------------------------------|
G|--------------------------------------------------------------------------|
D|---------------------9----9----9-------9--9-------------------------------|
A|---------------------7----7----7-------7--7-------------------------------|
E|---------------------0----0----0-------0--0-------------------------------|

e|-------------------------------------------------------------------------|
B|---------------------------9---------------------------------------------|
G|----------------------------------------------11-------------9-----------|
D|---------------9/11/9-----------9/11/9--------------9/11-----------------|
A|-------------------------------------------------------------------------|
E|-------------------------------------------------------------------------|
Добавлено: 03.12.2013
Другие материалы по этой песне:
  • Аккорды и текст

Страница создана 03.12.2013
http://primanota.ru/misc-unsigned-bands/blue-van-silly-boy-chords.htm
Привет, Гость.
Предлагаем пройти революционный курс по гитаре.
Подарок от PrimaNota.Ru, забирай!