PrimaNota.ru - самый крупный в мире бесплатный архив песенных текстов, аккордов, табулатур и нот


Misc Unsigned Bands - Beyond The Horizon - All Lies - таба

Регистрация Запомнить меня
Войти через:  Facebook Google Twitter Vk Yandex Mail.ru

Misc Unsigned Bands - Beyond The Horizon - All Lies - таба

Печатать
Просмотров: 43
(intro)
(Guitar 1)
|------------------------------------------------------|\
|------------------------------------------------------| |
|------------------------------------------------------| |X2
|------------------------------------111/4-4-4h5p4-----| | 
|3-333-2-1------3-333-2-1------1h2p1-------------------| | 
|----------1111-----------1111--------------------1111-|/

(Guitar 2)
|------------------------------------------------------|\
|------------------------------------------------------| |
|------------------------------------------------------| |x2
|------------------------------------------------------| |
|7-777-6-5------7-777-6-5------7-----666/9-6-5---------| |
|5-555-4-3-0000-5-555-4-3-0000-5-----444/7-4-3----0000-|/
         pm....           ....                    .... 
         
(Guitar 1)
|-------------------------------------------xxx----------------xxx-7777/8888/9999w-xxx-|
|-------------------------------------------xxx-7777/8888/9999-xxx-----------------xxx-|
|----------------------------7777/8888/9999-xxx----------------xxx-----------------xxx-|
|xxx-----------------------------------------------------------------------------------|
|xxx-1111-1h2p1------------------------------------------------------------------------|
|xxx------------000000000000-----------------------------------------------------------|
              pm............

(Guitar 2)
|--------------------------------------------------------------------------------------|
|--------------------------------------------------------------------------------------|
|--------------------------------------------------------------------------------------|
|xxx----------------------------------------xxx----------------xxx-----------------xxx-|
|xxx-3333-----------------------------------xxx----------------xxx-----------------xxx-|
|xxx-1111-------000000000000-/pickslide\----xxx-/pickslide\----xxx-/pickslide\-----xxx-|
              pm............

(main riff)(repeat till chorus)
(Guitar 1)
|----------------------|
|----------------------|
|--------------7-6-5-4-|
|6-777-6-777-6---------|
|----------------------|
|----------------------|

(Guitar 2)
|----------------------|
|----------------------|
|----------------------|
|----------------------|
|1-----1-----1-6-5-4-3-|
|1-111-1-111-1-4-3-2-1-|

(chorus)(repeat till lyrics end then finish with 4h5)-(No lyrics last time playing 4h5)
(Guitar 1)
|---12-9-|\   |---13-10-|\    --------      ---------      ------      ----------
|11------|/x4 |12-------|/x4 |---12-9-|\   |---13-10-|\   |--9-6-|\   |--9-6-4h5-|
 --------      ---------     |11------|/x4 |12-------|/x4 |8-----|/x3 |8---------|
 --------      ---------      --------      ---------      ------      ----------|
 --------      ---------      --------      ---------      ------      ----------|
 --------      ---------      --------      ---------      ------      ----------|
 
(Guitar 2)
 --------      ---------      --------      ---------      ------      ----------|
 --------      ---------      --------      ---------      ------      ----------|
 --------      ---------      --------      ---------      ------      ----------|
 --------      ---------      --------      ---------      ------      ----------|
|8--7--6-|\   |9--8--7--|\   |8--7--6-|\   |9--8--7--|\   |7-6-5-|\   |7-6-5-----|
|8--7--6-|/x4 |9--8--7--|/x4 |8--7--6-|/x4 |9--8--7--|/x4 |7-6-5-|/x3 |7-6-5-----|

(main riff/verse)
(chorus)
(main riff/Verse)

(pre-solo)
(Guitar 1)
|-----------------------------------------------------------------6666---------|
|----------------5b/r-------------------------9999-8888-7777-6666--------------|
|1-1-2-2-3-3-4-4------13-13-12-12-12-12-13-13--------------------------6666b/r-|
|------------------------------------------------------------------------------|
|------------------------------------------------------------------------------|
|------------------------------------------------------------------------------|

(Guitar 2)
|------------------------------------------------------------------------------|
|------------------------------------------------------------------------------|
|------------------------------------------------------------------------------|
|------------------------------------------------------------------------------|
|3-3-4-4-5-5-6-6-7----12-12-13-13-13-13-14-14----------------------------------|
|1-1-2-2-3-3-4-4-5----10-10-11-11-11-11-12-12-0000-0000-0000-0000-0000-0000----|
                                          pm  .... .... .... .... .... ...

(Solo)
(Guitar 1 only)
|-|
|-|
| |
|-|
|-|
|-|

(Chorus)
(Main riff/Verse)
(Chorus)
(pre-solo)

(Solo #2/Outro)
(Guitar 1 only)    
|-----9999--------------------------------------------------6789-6789-6789-------------------|
|8===------8---------9b-9b-9b----------------6789-6789-6789----------------9b-9b-9b----------|
|------------7-7h8p7----------6789-6789-6789-------------------------------------------------|
|--------------------------------------------------------------------------------------------|
|--------------------------------------------------------------------------------------6h7p6-|
|-----------------------------------------------------------------------------------0-0=====-|
                                                                                 pm.
|----------------------------------------------------------|
|----------------------------------------------------------|
|------------------15-17t----------------------------------|
|12-14-16b/r-15-17--------20-17-17-16-15-15p14/20b/r-0====-|
|----------------------------------------------------------|
|----------------------------------------------------------|
Добавлено: 18.10.2013
Другие материалы по этой песне:
  • Аккорды и текст

Страница создана 18.10.2013
http://primanota.ru/misc-unsigned-bands/beyond-the-horizon-all-lies-chords.htm
Привет, Гость.
Предлагаем пройти революционный курс по гитаре.
Подарок от PrimaNota.Ru, забирай!