PrimaNota.ru - самый крупный в мире бесплатный архив песенных текстов, аккордов, табулатур и нот


Misc Unsigned Bands - Black Magyk - Angry Again And Again - таба, видео

Регистрация Запомнить меня
Войти через:  Facebook Google Twitter Vk Yandex Mail.ru

Misc Unsigned Bands - Black Magyk - Angry Again And Again - таба, видео

Печатать
Просмотров: 38
----------------------------------------------------------------------------
                   ANGRY AGAIN (AND AGAIN) - Black Magyk
----------------------------------------------------------------------------
Tabbed by: Evan
Email: guitarhero9961@yahoo.com

Tuning: DADGBe

Intro:
e|-------------------------------------------------------------------------|
B|-------------------------------------------------------------------------|
G|-------------------------------------------------------------------------|
D|-9-7/9-12-9-7-5-7-9-7/9-12-9-7-5-3-2-7/9-12-9-7-5-7-9-7/9-12-9-7-5-3-2-0-|
A|-7-5/7-10-7-5-3-5-7-5/7-10-7-5-3-1-0-5/7-10-7-5-3-5-7-5/7-10-7-5-3-1-0-0-|
D|-------------------------------------------------------------------------|

Verse:
e|------------------------------------------------------------------|
B|------------------------------------------------------------------|
G|------------------------------------------------------------------|
D|-2222222222222222333333333333333322222222222222225555555555555555-|
A|-2222222222222222333333333333333322222222222222225555555555555555-|
D|-2222222222222222333333333333333322222222222222225555555555555555-|

Chorus:
Same as Intro

Bridge I:
e|------------------------------------------------------------------|
B|------------------------------------------------------------------|
G|------------------------------------------------------------------|
D|-2222222222222222333333333333333355555555555555557777777777777777-|
A|-2222222222222222333333333333333355555555555555557777777777777777-|
D|-2222222222222222333333333333333355555555555555557777777777777777-|

Bridge II:
e|----------|
B|----------|
G|----------|
D|-22335533-|
A|-22335533-|
D|----------|

Solo:
e|---------------------------(0)h8h10p0h7h8p0h8h10p0h10h12p0-| Then alot
B|-------(0)h5h7p0h7h8p0h8h10--------------------------------| more like
G|-(0)7h9----------------------------------------------------| this. Evan 
D|-----------------------------------------------------------| changes it
A|-----------------------------------------------------------| every time he
D|-----------------------------------------------------------| plays this.
Then
e|----------------------------------------------------------|
B|----------------------------------------------------------|
G|-h5h7p0h5h7p0h5h7p0h5h7-----------------------------------|
D|------------------------8s10-8-9-8s10-8-9-8s10-7-9-8s10-7-|
A|----------------------------------------------------------|
D|----------------------------------------------------------|

Bridge III:
e|-----|
B|-----|
G|-----|
D|-9-7-|
A|-7-5-|
D|-----|

Outro:         x2
e|--------------|----------------------------|---------------|
B|--------------|----------------------------|---------------|
G|--------------|----------------------------|---------------|
D|-22232----245-|-22232----245----245----245-|-23-23-23-23-0-|
A|-22232-245----|-22232-245----245----245----|-23-23-23-23-0-|
D|-22232--------|-22232----------------------|-23-23-23-23-0-|

Intro
Verse x2
Chorus
Verse
Chorus
Bridge I
Solo
Bridge II
Verse x2
Vocal Solo (No guitar for duration of Chorus)
Bridge III
Chorus
Outro
Добавлено: 28.02.2014
Другие материалы по этой песне:
  • Аккорды и текст

Страница создана 28.02.2014
http://primanota.ru/misc-unsigned-bands/black-magyk-angry-again-and-again-chords.htm
Привет, Гость.
Предлагаем пройти революционный курс по гитаре.
Подарок от PrimaNota.Ru, забирай!