PrimaNota.ru - самый крупный в мире бесплатный архив песенных текстов, аккордов, табулатур и нот


Misc Unsigned Bands - Ayaka - Jewelry Day - таба

Регистрация Запомнить меня
Войти через:  Facebook Google Twitter Vk Yandex Mail.ru

Misc Unsigned Bands - Ayaka - Jewelry Day - таба

Печатать
Просмотров: 44
======================================================================
Song: Jewelry day
Band: Ayaka
Album: Sing to the sky
Tuning: Capo 2 Flet
Ratio: 4/4
Tabbed by: oldy_nsw

length
a = 1/1
h = 1/2
q = 1/4
o = 1/8
x = 1/16

tab
[ = break
s = slide
x = mute
h = hammer
======================================================================

Intro: C - ConB - Am7 - Am7onG - FonG - C - G

Part A:

  C                ConB             Am7              Am7onG
|-------0--------|-------0--------|-------0---------|-------3---------|
|-------------1--|-1-----------1--|-1-----------1---|-1-----------1---|
|-----0-----0----|-----0-----0----|-----0-----0-----|---0-------0-----|
|---2-----2------|---2-----2------|---2-----2-----1-|-----2---2-------|
|-3--------------|-2--------------|-0---------------|-----------------|
|----------------|----------------|-----------------|-3-------------3-|
  o o o o o o q    o o o o o o q    o o o o o o o o   o o o o o o o o

  Fadd9             Em7             Dm7              G
|-----------------|-------0-------|-------1--------|----------------|
|-------1---------|-----3------3--|-----1----1---1-|-0--------0-----|
|-----0-----0-----|-----0----0----|---2--------2---|-----0-2----0---|
|---3-----3---3---|---------------|-0--------------|---0------------|
|-----------------|---2-----------|----------------|----------------|
|-1-------------1-|-0-------------|----------------|-3------------3-|
  o o o o o o o o   o o o q  o q    o o o q  o o o   o o o q  o o o

  C                ConB             Am7              Am7onG
|-------0--------|-------0--------|-------0---------|-------3---------|
|-------------1--|-1-----------1--|-1-----------1---|-1-----------1---|
|-----0-----0----|-----0-----0----|-----0-----0-----|---0-------0-----|
|---2-----2------|---2-----2------|---2-----2-----1-|-----2---2-------|
|-3--------------|-2--------------|-0---------------|-----------------|
|----------------|----------------|-----------------|-3-------------3-|
  o o o o o o q    o o o o o o q    o o o o o o o o   o o o o o o o o

  Fadd9             FonG          C                  Fm7
|-----------------|-x---x-------|------------------|-1---1--------|
|-------1---------|-1---1-------|-------1h3---1----|-1------1---1-|
|-----0-----0-----|-2-[-2-------|-----0---------0--|-1--------1---|
|---3-----3---3---|-3---3-------|---2-------2------|-1------------|
|-----------------|-x---x-------|-3----------------|-3------------|
|-1-------------1-|-3---3-------|------------------|-1------------|
  o o o o o o o o   o o hq        o o o x x o o q    q.  q  o o o

  C                  Fm7            C       ConB     Am7
|------------------|-1------------|-0-------0------|-------0--------|
|-------1h3---1----|-1----1----1--|-------1--------|-1---------1----|
|-----0---------0--|-1--1----1----|---0---------0--|-----0-------0--|
|---2-------2------|-1------------|-----2-----2----|---2-----2------|
|-3----------------|-3------------|-3-------2------|-0--------------|
|------------------|-1------------|----------------|----------------|
  o o o x x o o q    q  o q  o q    o o o o o o q    o o o o o o q

  D7              G                G
|-2----2--------|----------------|---------------|
|---------1-----|-0----1-0-------|-0-----1--3----|
|----2------2---|----0-----0-----|---0-----------|
|---------------|------------0---|-----0---------|
|-0-----------0-|--------------2-|-------0--2--2-|
|---------------|-3--------------|-3-------------|
  q  o q  o o o   q  o o o o o o   o o o q  q  o
Добавлено: 25.09.2013
Другие материалы по этой песне:
  • Аккорды и текст

Страница создана 25.09.2013
http://primanota.ru/misc-unsigned-bands/ayaka-jewelry-day-chords.htm
Привет, Гость.
Предлагаем пройти революционный курс по гитаре.
Подарок от PrimaNota.Ru, забирай!