PrimaNota.ru - самый крупный в мире бесплатный архив песенных текстов, аккордов, табулатур и нот


Misc Unsigned Bands - Backwoods Payback - Mickey Morandini - таба

Регистрация Запомнить меня
Войти через:  Facebook Google Twitter Vk Yandex Mail.ru

Misc Unsigned Bands - Backwoods Payback - Mickey Morandini - таба

Печатать
Просмотров: 41
Уроки эстрадного вокала в Санкт-Петербурге
-------------------------------------------------------------------------------
                             MICKEY MORANDINI - Backwoods Payback
-------------------------------------------------------------------------------
Tabbed by:Kelly Pluck
Email:JJeffburton99@comcast.net

Tuning:DGCFAD

MAIN 1
D|-----------------------------------------------------------------------------|
A|-----------------------------------------------------------------------------|
F|-----------------------------------------------------------------------------|
C|-----------------------------------------------------------------------------|
G|13/12-12-12-12-12-13/12-12-12-12-12-13/12-12-12-12-12-15-15-15-15-13-13-13-13|
D|11/10-10-10-10-10-11/10-10-10-10-10-11/10-10-10-10-10-13-13-13-13-11-11-11-11|

MAIN 2
D|---------------------------------------------------------------------------|
A|---------------------------------------------------------------------------|
F|---------------------------------------------------------------------------|
C|---------------------------------------------------------------------------|
G|13/12-12-12-12-12-13/12-12-12-12-12-13/12-12-12-12-12-8-8-8-8-10-10-10-10--|
D|11/10-10-10-10-10-11/10-10-10-10-10-11/10-10-10-10-10-6-6-6-6--8--8--8--8--|

BRIDGE
D|---------------------------------------------------------------------------|
A|---------------------------------------------------------------------------|
F|---------------------------------------------------------------------------|
C|---------------------------------------------------------------------------|
G|2-3-5-8-12-10----------2-3-5-8-12-10---------------------------------------|
D|0-1-3-6-10--8----------0-1-3-6-10--8---------------------------------------|
             [Let Ring..]           [Let Ring..]
CHORUS
D|---------------------------------------------------------------------------|
A|---------------------------------------------------------------------------|
F|---------------------------------------------------------------------------|
C|---------------------------------------------------------------------------|
G|777-777-7-7-7888----------10-10-12-13--------------------------------------|
D|555-555-5-5-5666-----------8--8-10-11--------------------------------------|
                  x7  then ^

END WITH
D|---------------------------------------------------------------------------|
A|---------------------------------------------------------------------------|
F|---------------------------------------------------------------------------|
C|---------------------------------------------------------------------------|
G|2--------------------2-----------------------------------------------------|
D|0--------------------0-----------------------------------------------------|
 [Let Ring...]        [Let Ring...]


ORDER OF SEQUENCE:
MAIN 1        x4
BRIDGE        x4
MAIN 1        x6
BRIDGE        x4
MAIN 2        x4
CHORUS        x1
MAIN 2        x4
BRIDGE        x4


| /  slide up
| \  slide down
| h  hammer-on
| p  pull-off
| ~  vibrato
| +  harmonic
| x  Mute note
Добавлено: 06.08.2013
Другие материалы по этой песне:
  • Аккорды и текст

Страница создана 06.08.2013
http://primanota.ru/misc-unsigned-bands/backwoods-payback-mickey-morandini-chords.htm
Привет, Гость.
Предлагаем пройти революционный курс по гитаре.
Подарок от PrimaNota.Ru, забирай!