PrimaNota.ru - самый крупный в мире бесплатный архив песенных текстов, аккордов, табулатур и нот


Misc Unsigned Bands - Angel Eyes - Jeff Healey Band - таба

Регистрация Запомнить меня
Войти через:  Facebook Google Twitter Vk Yandex Mail.ru

Misc Unsigned Bands - Angel Eyes - Jeff Healey Band - таба

Печатать
Просмотров: 62
Уроки эстрадного вокала в Санкт-Петербурге
Angel Eyes-The Jeff Healey Band

E|-------------- 4----------------|--------------------------------|
B|------------------ 5------------| 7---------------- 5------------|
G|------------ 4---------- 4------|---- 8---------------- 6--------|
D|------ 6-------------------- 6--|------ 9-------- 7-------- 7----|
A|--------------------------------|--------------------------------|
E| 0------------------------------|--------------------------------|

E|---------------- 4--------------|--------------------------------|
B|-------------------- 5----------| 7------------------ 5----------|
G|------------ 4---------- 4------|---- 8------ 8---------- 6------|
D|------ 6------------------------|-------- 9------ 7---------- 7--|
A|--------------------------------|--------------------------------|
E| 0------------------------------|--------------------------------|

E|-------------- 4----------------|--------------------------------|
B|------------ 5 5---- 5---- 7----| 5------------------------------|
G|-------- 4------ 4-- 4---- 4----| 4 6-- 4------------ 4---- 6----|
D|---- 6-------------- 6-------- 6|-------------- 6----------------|
A|--------------------------------|--------------------------------|
E| 0---------------------------- 4|--------------------------------|

E|--------------------------------|---------------------------- 0--|
B|--------------------------------|------------ 0------------------|
G| 1------------ 1----------------|-------- 4---------- 4----------|
D|-- 4-- 2-------------- 2-- 4----|---- 4------------------ 4------|
A| 0---------------------------- 2|--------------------------------|
E|--------------------------------|--------------------------------|

E|-------------- 4----------------|--------------------------------|
B|------------ 5 5---- 5---- 7----| 5------------------------------|
G|-------- 4------ 4-- 4---- 4----| 4 6-- 4------------ 4---- 6----|
D|---- 6-------------- 6-------- 6|-------------- 6----------------|
A|--------------------------------|--------------------------------|
E| 0---------------------------- 4|--------------------------------|

E|--------------------------------|--------------------------------|
B|--------------------------------|--------------------------------|
G| 1------------------------------|---------------------------- 2--|
D|---- 4------ 2------ 2------ 4--|-- 2------------------ 2--------|
A| 0------------------------------| 2---------- 4 2----------------|
E|--------------------------------|--------------------------------|

E|---------------------------- 2--|--------------------------------|
B|------------ 2-- 2-- 5------ 5--|---- 5------ 2------------------|
G|-------- 2-- 2-- 2-- 2---- 4----|---- 4-------------- 4------ 1--|
D|---- 2---------- 2-- 2----------|-------- 2------------------ 2--|
A| 0------------------------------|--------------------------------|
E|--------------------------------| 4------------------------------|

E|--------------------------------|--------------------------------|
B|--------------------------------|---------------- 5--------------|
G|--------------------------------|---- 4-------------- 4----------|
D| 4-- 2-------- 2---- 2-- 4-- 2--| 6---------- 6------------ 6----|
A|--------------------------------|--------------------------------|
E| 2------------------------------| 4------------------------------|

E|--------------------------------|--------------------------------|
B|------------ 2-- 2-- 5------ 5--|------------ 2------ 5----------|
G|------ 2---- 2-- 2-- 2------ 4--|---- 4------ 4------ 4----------|
D|---- 2---- 2---- 2-- 2------ 2--|---- 2------ 2-------------- 2--|
A| 0------------------------------|--------------------------------|
E|--------------------------------| 4------------------------------|

E|-------------- 2---- 4------ 4--|-- 2----------------------------|
B|---------- 2-- 2---- 2------ 2--|---- 5---------------------- 2--|
G|-------- 3---- 3---- 3------ 3--|-------------------- 3-- 4------|
D|-- 2----------------------------|---------------- 2--------------|
A|--------------------------------|--------------------------------|
E| 2------------------------------| 2------------------------------|

E|--------------------------------|--------------------------------|
B| 5---------- 5------ 5------ 4--|-------------------- 4----------|
G| 4------ 4---------- 4------ 4--| 6-- 4---------- 4------ 4------|
D|---- 6---------- 6------ 6------|------------ 6-------------- 6--|
A|--------------------------------|--------------------------------|
E| 0------------------------------| 4------------------------------|

E|-------------------- 2----------|--------------------------------|
B|------------ 5-------------- 4--|-- 2---------------- 2----------|
G|-------- 2-- 2-------------- 4--|---- 4---------- 4------ 4------|
D|---- 2---------------------- 4--|------------ 4-------------- 4--|
A| 0------------------------------| 2------------------------------|
E|--------------------------------|--------------------------------|

E|--------------------------------|--------------------------------|
B|------------ 5------ 7------ 4--|-------------------------- 5----|
G|-------- 4-- 4------ 4------ 4--|-- 6 4-------------- 6----------|
D|---- 6---------------------- 6--|---------------- 6--------------|
A|--------------------------------|--------------------------------|
E| 0------------------------------| 4------------------------------|

E|--------------------------------|--------------------------------|
B| 5-- 2-------- 2---- 2---- 5----| 5-- 4---------------- 4--------|
G| 2-- 2------ 2------ 2----------| 4-- 4---------- 4-------- 4----|
D| 2------ 2----------------------| 4-- 4------ 4------------------|
A| 0---------------------------- 2|--------------------------------|
E|--------------------------------|--------------------------------|

E|---------------- 4 7 4----------|--------------------------------|
B|------------ 5-- 5-- 5---- 7-- 5| 7-- 5---------------------- 5--|
G|-------- 6-------------------- 4|---------- 6------------ 6------|
D|---- 7------------------------ 6|-------------------- 6----------|
A| 0------------------------------|--------------------------------|
E|--------------------------------| 4------------------------------|

E|---------------- 9--------------|--------------------------------|
B|------------ 9------ 9-------- 5| 7 5------------------------ 5--|
G|-------- 8----------------11----| 4-------- 6------------ 6------|
D|----10--------------------------| 6------------------ 6----------|
A|--------------------------------| 4------------------------------|
E| 8------------------------------|--------------------------------|

E|--------------------------------|--------------------------------|
B|-------- 2------ 2---------- 5--|---- 2---------------------- 4--|
G|------------ 4------ 4------ 4--|------------ 4------ 4------ 4--|
D|---- 2---------------------- 2--|---------------------------- 4--|
A| 0------------------------------|--------------------------------|
E|--------------------------------| 4------------------------------|

E|---------------------------- 0--|---------------------- 0--------|
B|-- 2---------------- 2-- 5------|------------ 0-- 0-- 2------ 2--|
G|-------- 4------ 4--------------|-------- 1-- 1-- 1--------------|
D|------------ 4------------------|---- 2------ 2-- 2--------------|
A| 2------------------------------|--------------------------------|
E|--------------------------------| 0------------------------------|

E| 2---------- 2---------- 0------|--------------------------------|
B| 2---------- 2---------- 0------|---------------- 0--------------|
G| 2---------- 2---------- 1------|-------- 1---------- 1----------|
D|--------------------------------|---- 2------ 2---------- 2------|
A|--------------------------------|--------------------------------|
E| 0------------------ 0-- 0------|---------------------------- 0--|

E| 2------ 2------------ 4--------|------ 4------------------------|
B| 2------ 2------ 5---- 5--------|---------------------- 5--------|
G| 2------ 2------------ 4--------|---------- 4-- 4-- 6------ 6----|
D|--------------------------------|---- 6--------------------------|
A|------------------------ 4------|--------------------------------|
E| 2------------------------------|--------------------------------|

E| 2---------- 2---------- 0------|--------------------------------|
B| 2---------- 2---------- 0------|-------- 0---- 0------ 2------ 7|
G| 2---------- 2------------------|---- 1------ 1---------------- 4|
D|--------------------------------|------------------------------ 6|
A|--------------------------------|--------------------------------|
E| 0------------------ 0-- 0------|--------------------------------|
E|--------------------------------|------------------------------ 2|
B|--------------------------------|---------------------- 5------ 2|
G|------ 6------ 4------ 6--------|---- 4-------- 6----------------|
D|------ 6------ 6------ 6--------|------ 6------ 6----------------|
A| 4-------------------- 4--------|---------------- 4--------------|
E|--------------------------------|--------------------------------|

E|------------ 2---------- 0------|---------- 0---------- 0------ 2|
B|------------ 2---------- 0------|-------------- 0 2-- 0-------- 2|
G| 2---------- 2---------- 1------|-------- 1---- 1-------------- 2|
D|--------------------------------|---- 2------------------------ 2|
A|--------------------------------|--------------------------------|
E| 0------------------ 0-- 0------|--------------------------------|

E|------ 2-------------- 4--------|---------- 4--------------------|
B|------ 2------ 5------ 5--------|--------------------------------|
G|------ 2-------------- 4--------|------ 4------ 4------ 6--------|
D|--------------------------------|-- 6----------------------------|
A|------------------------ 4------|-------------- 4----------------|
E| 2------------------------------|--------------------------------|

E|--------------------------------| 4---------------------------- 4|
B| 5---- 5------ 5----------------| 5---- 7-- 5---- 5------------ 5|
G| 3---- 3------ 3---------- 3----| 4---- 4-- 4---- 4---- 4-- 6-- 6|
D| 2---- 2------ 2------ 2------ 6|------ 6-- 6---- 6--------------|
A|--------------------------------|--------------------------------|
E| 2------------------------------| 4------------------------------|
E|-------------------------- 2----|--------------------------------|
B|------ 7------ 5------ 5---- 2--|-------------- 2------------ 2--|
G|------ 6------ 6------ 6--------|---------- 2------------ 4------|
D|--------------------------------|------ 2---------------- 2------|
A| 0------------------------------| 2------------------------------|
E|--------------------------------|--------------------------------|

E|--------------------------------|--------------------------------|
B| 5---------- 5------ 5------ 4--|-------------------- 4----------|
G| 4------ 4---------- 4------ 4--| 6-- 4---------- 4------ 4------|
D|---- 6---------- 6------ 6------|------------ 6-------------- 6--|
A|--------------------------------|--------------------------------|
E| 0------------------------------| 4------------------------------|

E|-------------------- 2----------|--------------------------------|
B|------------ 5-------------- 4--|-- 2---------------- 2----------|
G|-------- 2-- 2-------------- 4--|---- 4---------- 4------ 4------|
D|---- 2---------------------- 4--|------------ 4-------------- 4--|
A| 0------------------------------| 2------------------------------|
E|--------------------------------|--------------------------------|

E|--------------------------------|--------------------------------|
B|------------ 5------ 7------ 4--|-------------------------- 5----|
G|-------- 4-- 4------ 4------ 4--|-- 6 4-------------- 6----------|
D|---- 6---------------------- 6--|---------------- 6--------------|
A|--------------------------------|--------------------------------|
E| 0------------------------------| 4------------------------------|

E|--------------------------------|--------------------------------|
B| 5-- 2-------- 2---- 2---- 5----| 5-- 4---------------- 4--------|
G| 2-- 2------ 2------ 2----------| 4-- 4---------- 4-------- 4----|
D| 2------ 2----------------------| 4-- 4------ 4------------------|
A| 0---------------------------- 2|--------------------------------|
E|--------------------------------|--------------------------------|

E|---------------- 4 7 4----------|--------------------------------|
B|------------ 5-- 5-- 5---- 7-- 5| 7-- 5---------------------- 5--|
G|-------- 6-------------------- 4|---------- 6------------ 6------|
D|---- 7------------------------ 6|-------------------- 6----------|
A| 0------------------------------|--------------------------------|
E|--------------------------------| 4------------------------------|

E|---------------- 9--------------|--------------------------------|
B|------------ 9------ 9-------- 5| 7 5------------------------ 5--|
G|-------- 8----------------11----| 4-------- 6------------ 6------|
D|----10--------------------------| 6------------------ 6----------|
A|--------------------------------| 4------------------------------|
E| 8------------------------------|--------------------------------|

E|--------------------------------|--------------------------------|
B|-------- 2------ 2---------- 5--|---- 2---------------------- 4--|
G|------------ 4------ 4------ 4--|------------ 4------ 4------ 4--|
D|---- 2---------------------- 2--|---------------------------- 4--|
A| 0------------------------------|--------------------------------|
E|--------------------------------| 4------------------------------|

E|---------------------------- 0--|---------------------- 0--------|
B|-- 2---------------- 2-- 5------|------------ 0-- 0-- 2------ 2--|
G|-------- 4------ 4--------------|-------- 1-- 1-- 1--------------|
D|------------ 4------------------|---- 2------ 2-- 2--------------|
A| 2------------------------------|--------------------------------|
E|--------------------------------| 0------------------------------|

E|-- 0----------------------------|--------------------------------|
B|-- 0----------------------------| 0-------------------------- 0--|
G| 1-- 2-------------- 2----------|---------------------------- 1--|
D|---------- 2--------------------|-------------------------- 2----|
A|--------------------------------|--------------------------------|
E| 0------------------------------|------------------------ 0------|
Добавлено: 10.07.2013
Другие материалы по этой песне:
  • Аккорды и текст

Страница создана 10.07.2013
http://primanota.ru/misc-unsigned-bands/angel-eyes-jeff-healey-band-chords.htm
Привет, Гость.
Предлагаем пройти революционный курс по гитаре.
Подарок от PrimaNota.Ru, забирай!