PrimaNota.ru - самый крупный в мире бесплатный архив песенных текстов, аккордов, табулатур и нот


Misc Unsigned Bands - Apollos Arrows - Hi Im Neil Armstrong - таба

Регистрация Запомнить меня
Войти через:  Facebook Google Twitter Vk Yandex Mail.ru

Misc Unsigned Bands - Apollos Arrows - Hi Im Neil Armstrong - таба

Печатать
Просмотров: 49
This song features two guitar parts and this tab is covering all of the heavy 
distorted guitar parts.

Standard tuning 

   E E E E E E E E E E   E E E E E E  E E E E E E E E E E  E E E
|-----------------------------------------------------------------||
|-----------------------------------------------------------------||
|--------------------------------6--------------------6-----------||
|------------------------6-6-6-9---9----------6-6-6-9---9---------||
|--6-4-2-4-2-4-2-1-2-1----------------6-1-2----------------6-4-2--||
|-------------------------------------------4---------------------||


  E  E E E E E E  E E E E  E E E E E E E E E E
|-------------------------------------------------|
|-------------------------------------------------|
|------------6------------------------------------|
|----6-6-6-9---9----------------------------------|
|-----------------6-1-2---------------------------|
|-4---------------------4--7-6-4-6-4-6-4-2-4-2----|


  E E E E     E E E E E   E E E E     E E E E E     E E E E E E E E E
|--------------------------------------------------------------------|
|-------4b--------4---4---------4b-----4---4-------------------------|
|-------4b--------4---4---------4b-----4---4-------------------------|
|--------------------------------------------------------------------|
|-------------------------------------------------------4-----4---4--|
|-0-0-0-------0-0---0-----0-0-0-----0-0---0-------2-2-2---2-2---2----|


  E E E E      E E E    E E E E E E E E E E E E E E E E E E  E
|-----------------------------------------------------------------|
|-------4---------------------------------------------------------|
|-------4b--------------------------------------------------------|
|-----------------------------------------------------------------|
|-----------------------------------------------------------------|
|-0-0-0--------0-0-0----4-2-4-6-4-6-4-6-7-6-7-6-7-9-7-9-7-9-12----|


  E E E E E E E E E E E E E E E E E E  E       E E E
|-------------------------------------------------------|
|-------------------------------------------------------|
|-------------------------------------------------------|
|----------------------------------------------6-4------|
|--------------------------------------------------6----|
|-4-2-4-6-4-6-4-6-7-6-7-6-7-9-7-9-7-9-12----------------|


  E E E E E E E E E E E E E E E E E E E    E E E E E E E E E
|---------------------------------------------------------------|
|---------------------------4-----4--------------4-----4--------|
|---------------------------4-----4--------------4-----4--------|
|---------------------------------------------------------------|
|-6-4-2-4-2-4-2-1-2-1-------------------------------------------|
|---------------------0-0-0---0-0---0-0----0-0-0---0-0---0-0----|


  E E E E E E E E E  E E E E      E E E   E E E E E E E E E E E E E E E E
|-------------------------------------------------------------------------|
|-------4-----4------------4b---------------------------------------------|
|-------4-----4------------4b---------------------------------------------|
|-------------------------------------------------------------------------|
|-------------------------------------------------------------------------|
|-0-0-0---0-0---0-0--0-0-0--------0-0-0---4-2-4-6-4-6-4-6-7-6-7-6-7-9-7-9-|


  E E  E     E E E E E E E E E E E E E E E E E E  E
|------------------------------------------------------|
|------------------------------------------------------|
|------------------------------------------------------|
|------------------------------------------------------|
|------------------------------------------------------|
|-7-9-12-----4-2-4-6-4-6-4-6-7-6-7-6-7-9-7-9-7-9-12----|


  E E E E E E    E E E   E  E E E  E E  E
|--------------------------------------------|
|--------------------------------------------|
|--------------------------------------------|
|----------------6-6-6---6-------------------|
|-6-6-6-6-6-6--------------------------------|
|-4-4-4-4-4-4----4-4-4---4--4-4-4--4-4--4----|


  E E E E E E  E E E E E E  E
|--------------------------------|
|--------------------------------|
|-3-3-3-3-3-3--4-4-4-4-4-4-------| X8
|--------------------------------|
|--------------------------------|
|-4-4-4-4-4-4--4-4-4-4-4-4-------|


  E E E E E E E E E E E E E E E E E E  E
|-------------------------------------------|
|-------------------------------------------|
|-------------------------------------------|
|-------------------------------------------| X2
|-------------------------------------------|
|-4-2-4-6-4-6-4-6-7-6-7-6-7-9-7-9-7-9-12----|
Добавлено: 04.12.2013
Другие материалы по этой песне:
  • Аккорды и текст

Страница создана 04.12.2013
http://primanota.ru/misc-unsigned-bands/apollos-arrows-hi-im-neil-armstrong-chords.htm
Привет, Гость.
Предлагаем пройти революционный курс по гитаре.
Подарок от PrimaNota.Ru, забирай!