PrimaNota.ru - самый крупный в мире бесплатный архив песенных текстов, аккордов, табулатур и нот


Misc Unsigned Bands - Amy Meredith - Lying - таба

Регистрация Запомнить меня
Войти через:  Facebook Google Twitter Vk Yandex Mail.ru

Misc Unsigned Bands - Amy Meredith - Lying - таба

Печатать
Просмотров: 49
Great song! and i was surprised that there are no tabs for it yet, so i made one myself :) Enjoy!

http://www.amymeredith.com.au/
Band: Amy Meredith - Lying (Acoustic)
Album: Restless
Year: 2010
Tabbed by: Scott Naylor

Tunning: E A D G B e (Capo on 1st Fret)


Verse

e||-0-0-0-0--0-0-0-0--0-0-0-0--0-0-0-0----|\
B||-0-0-0-0--0-0-0-0--0-0-0-0--0-0-0-0----| \
G||-6-6-6-6--4-4-4-4--9-9-9-9--9-9-9-9----|  \
D||-x-x-x-x--x-x-x-x--x-x-x-x--x-x-x-x----|   \
A||-4-4-4-4--2-2-2-2--7-7-7-7--6-6-6-6----|    \
E||---------------------------------------|     |
                                                | x2
e||-0-0-0-0--0-0-0-0--0-0-0-0--0-0-0-0----|     |
B||-0-0-0-0--0-0-0-0--0-0-0-0--0-0-0-0----|    /
G||-6-6-6-6--4-4-4-4--6-6-6-6--9-9-9-9----|   /
D||-x-x-x-x--x-x-x-x--x-x-x-x--x-x-x-x----|  /
A||-4-4-4-4--2-2-2-2--4-4-4-4--7-7-7-7----| /
E||---------------------------------------|/


Chorus

e||-0-0-0-0--0-0-0-0--0-0-0-0--0-0-0-0----| 
B||-0-0-0-0--0-0-0-0--0-0-0-0--0-0-0-0----| 
G||-6-6-6-6--4-4-4-4--4-4-4-4--4-4-4-4----|  
D||-6-6-6-6--2-2-2-2--4-4-4-4--2-2-2-2----|  x4
A||-4-4-4-4--2-2-2-2--2-2-2-2--0-0-0-0----|    
E||---------------------------------------|     


Verse x1


Chorus x1


Bridge

e||-0-0-0-0--0-0-0-0--0-0-0-0--0-0-0-0----|
B||-0-0-0-0--0-0-0-0--0-0-0-0--0-0-0-0----| 
G||-4-4-4-4--4-4-4-4--4-4-4-4--6-6-4-4----|  
D||-2-2-2-2--4-4-4-4--4-4-4-4--6-6-4-4----|   
A||-0-0-0-0--2-2-2-2--x-x-x-x--4-4-2-2----|    
E||-------------------2-2-2-2-------------|      
                                                    
e||-0-0-0-0--0-0-0-0--0-0-0-0--0-0-0-0--0~---|
B||-0-0-0-0--0-0-0-0--0-0-0-0--0-0-0-0--0~---| 
G||-4-4-4-4--4-4-4-4--4-4-4-4--4-4-4-4--6~---|  
D||-2-2-2-2--4-4-4-4--4-4-4-4--4-4-4-4--6~---|   
A||-0-0-0-0--2-2-2-2--x-x-x-x--x-x-x-x--4~---|    
E||-------------------2-2-2-2--2-2-2-2-------|   


Chorus x2


Bridge x1


   x = Mute note
   ~ = Let ring

     Feel free to leave me feedback on the tab at scotty_naylor@hotmail.com

     Thanks 
Добавлено: 25.10.2013
Другие материалы по этой песне:
  • Аккорды и текст

Страница создана 25.10.2013
http://primanota.ru/misc-unsigned-bands/amy-meredith-lying-chords.htm
Привет, Гость.
Предлагаем пройти революционный курс по гитаре.
Подарок от PrimaNota.Ru, забирай!