PrimaNota.ru - самый крупный в мире бесплатный архив песенных текстов, аккордов, табулатур и нот


Misc Unsigned Bands - Anarchy 80 - One Final Goodbye - таба

Регистрация Запомнить меня
Войти через:  Facebook Google Twitter Vk Yandex Mail.ru

Misc Unsigned Bands - Anarchy 80 - One Final Goodbye - таба

Печатать
Просмотров: 53
This is a Screamo song Written with Peat Wintz and personal friend Charley Scene and
personal friend from system of a down Serj Tankain. At end there will be complete song
Understand that the beat goes from the signature style of Serj Takain to the calming 
of soft rock Giveing it the affect of hardcore Metal. The tone and speed and timeing are
major factors in this song and cannot be ignored if you want to learn it. this is a song 
major Alternitive Picking and is designed for casual and hardcore metal fans all 
So Enjoy. And please Please Tell me how you like the song.

Key: _: let it ring for end of measure, ~: let ring for 2 seconds

Intro:
"Here i come through the doorway..."
E---------------------------------------------------------||
B---------------------------------------------------------||
G---------------------------------------------------------||
D------2~2~------2~2~-----2~2~-----5~5~-----5~5~-----5~5~-||
A-----2---2~----2---2~---2---2~---5---5~---5---5~---5---5~||
E--000------0000-----0000-----3333-----3333-----3333------||

Verse1:
"I've slit my wrist..."
E---------------------------------------------------------||
B---------------------------------------------------------||
G------------------7~7~5~5~3~3~0___________________-------||
D--2~22-5~55-7~77-7~7~5~5~3~3~0____________________-------||
A--2~22-5~55-7~77-----------------------------------------||
E--0~00-3~33-5~55-----------------------------------------||

Chorus1:
"Hiding in the doorway..."
E---------------------------------------------------------||
B---------------------------------------------------------||
G---------------------------------------------------------||
D------2~2~------2~2~-----2~2~-----5~5~-----5~5~-----5~5~-||
A-----2---2~----2---2~---2---2~---5---5~---5---5~---5---5~||
E--000------0000-----0000-----3333-----3333-----3333------||

Verse2:
"And i will say goodbye..."
E---------------------------------------------------------||
B---------------------------------------------------------||
G------------------7~7~5~5~3~3~0___________________-------||
D--2~22-5~55-7~77-7~7~5~5~3~3~0____________________-------||
A--2~22-5~55-7~77-----------------------------------------||
E--0~00-3~33-5~55-----------------------------------------||

Final Chorus:
"One Final Goodbye..."
E---------------------------------------------------------||
B---------------------------------------------------------||
G------------------7~7~5~5~3~3~0___________________-------||
D--2~22-5~55-7~77-7~7~5~5~3~3~0____________________-------||
A--2~22-5~55-7~77-----------------------------------------||
E--0~00-3~33-5~55-----------------------------------------||


LYRICS:
Whatever is in "()" is back vocals screaming. the song for the Verses are singing. For
Chorus the screamo parts are marked by "()"

Добавлено: 25.11.2013
Другие материалы по этой песне:
  • Аккорды и текст

Страница создана 25.11.2013
http://primanota.ru/misc-unsigned-bands/anarchy-80-one-final-goodbye-chords.htm
Привет, Гость.
Предлагаем пройти революционный курс по гитаре.
Подарок от PrimaNota.Ru, забирай!