PrimaNota.ru - самый крупный в мире бесплатный архив песенных текстов, аккордов, табулатур и нот


Misc Unsigned Bands - Amnestiet - Du Og Jeg - таба

Регистрация Запомнить меня
Войти через:  Facebook Google Twitter Vk Yandex Mail.ru

Misc Unsigned Bands - Amnestiet - Du Og Jeg - таба

Печатать
Просмотров: 66
Amnestiet - Du & Jeg

Tabbed by: Zlash/MG
Email: sliderheerst@gmail.com

Tuning: Standard

Intro
e|---------------------------------------------------------------------------|
B|-1--------1--------1--------1---------1--------1--------1--------1---------|
G|---0--------0--------0--------0---------0--------0--------0--------0-------|
D|-----2--------2--------2--------2---------2--------2--------2--------2-----|
A|-3------3----------3------3-----------3------3----------3------3-----------|
E|---------------------------------------------------------------------------|
      C                                                                 

Verse 1
e|---------------------------------------------------------------------------|
B|-1--------1--------1--------3---------1--------1--------1--------3---------|
G|---0--------0--------0--------0---------2--------2--------2--------2-------|
D|-----2--------2--------2--------2---------2--------2--------2--------2-----|
A|-3------3----------3------3-----------0------0----------0------0-----------|
E|---------------------------------------------------------------------------|
     C                                   Am

e|---------------------------------------------------------------------------|
B|-1--------1--------1--------3---------1--------1--------1--------3---------|
G|---0--------0--------0--------0---------2--------2--------2--------2-------|
D|-----2--------2--------2--------2---------2--------2--------2--------2-----|
A|-3------3----------3------3-----------0------0----------0------0-----------|
E|---------------------------------------------------------------------------|
     C                                   Am


Chorus
e|---------------------------------------------------------------------------|
B|-0--------0--------0--------0---------1--------1--------1--------1---------|
G|---0--------0--------0--------0---------2--------2--------2--------2-------|
D|-----0--------0--------0--------0---------3--------3--------3--------3-----|
A|---------------------------------------------------------------------------|
E|-3------3----------3------3-----------1------1----------1------1-----------|
     G                                   F


e|-----------------------------------------------------------------------------|
B|-0--------0--------0--------0---------0h1--------1--------1--------3---------|
G|---0--------0--------0--------0-----------2--------2--------2--------2-------|
D|-----0--------0--------0--------0-----------2--------2--------2--------2-----|
A|--------------------------------------0--------0----------0------0-----------|
E|-3------3----------3------3--------------------------------------------------|
     G                                 Am


Verse 2 - Same as Verse 1

e|---------------------------------------------------------------------------|
B|-1--------1--------1--------3---------1--------1--------1--------3---------|
G|---0--------0--------0--------0---------2--------2--------2--------2-------|
D|-----2--------2--------2--------2---------2--------2--------2--------2-----|
A|-3------3----------3------3-----------0------0----------0------0-----------|
E|---------------------------------------------------------------------------|
     C                                   Am

e|---------------------------------------------------------------------------|
B|-1--------1--------1--------3---------1--------1--------1--------3---------|
G|---0--------0--------0--------0---------2--------2--------2--------2-------|
D|-----2--------2--------2--------2---------2--------2--------2--------2-----|
A|-3------3----------3------3-----------0------0----------0------0-----------|
E|---------------------------------------------------------------------------|
     C                                   Am


Chorus 2
e|---------------------------------------------------------------------------|
B|-0--------0--------0--------0---------1--------1--------1--------1---------|
G|---0--------0--------0--------0---------2--------2--------2--------2-------|
D|-----0--------0--------0--------0---------3--------3--------3--------3-----|
A|---------------------------------------------------------------------------|
E|-3------3----------3------3-----------1------1----------1------1-----------|
     G                                 F


e|---------------------------------------------------------------------------1-|
B|-0--------0--------0--------0---------0h1--------1--------1--------3-------1-|
G|---0--------0--------0--------0-----------2--------2--------2--------2-----2-|
D|-----0--------0--------0--------0-----------2--------2--------2--------2---3-|
A|--------------------------------------0--------0----------0------0---------3-|
E|-3------3----------3------3------------------------------------------------1-|
     G                                Am                                  F

Bridge

Am G D-Dsus4-D (Hammer on to Dsus4 and pull off back to D)  |x8

then:

Dm
  Derfor sovner jeg så lett
G
  Derfor sovner jeg så lett


Next: Same chords as verses, but with chord strokes. Tab is meant as a guideline. 
Figure out the rhythm yourself.

   C                    Am
e|-0-0-0-0---0-0--0-0---0-0-0-0---0-0--0-0-----------------------------------|
B|-1-1-1-1---1-1--1-1---1-1-1-1---1-1--1-1-----------------------------------|
G|-0-0-0-0---0-0--0-0---2-2-2-2---2-2--0-0-----------------------------------|
D|-2-2-2-2---2-2--0-0---2-2-2-2---2-2--0-0-----------------------------------|
A|-3-3-3-3---3-3--2-2---0-0-0-0---0-0--2-2-----------------------------------|
E|-x-x-x-x---x-x--x-x---x-x-x-x---x-x--x-x-----------------------------------|

 C                    Am
e|-0-0-0-0---0-0--0-0---0-0-0-0---0-0--0-0-----------------------------------|
B|-1-1-1-1---1-1--1-1---1-1-1-1---1-1--1-1-----------------------------------|
G|-0-0-0-0---0-0--0-0---2-2-2-2---2-2--0-0-----------------------------------|
D|-2-2-2-2---2-2--0-0---2-2-2-2---2-2--0-0-----------------------------------|
A|-3-3-3-3---3-3--2-2---0-0-0-0---0-0--2-2-----------------------------------|
E|-x-x-x-x---x-x--x-x---x-x-x-x---x-x--x-x-----------------------------------|

Chorus

  G     F    G    Am
e|-3----1----3----0--0-0-----------------------------------------------------|
B|-3----1----3----1--1-1-----------------------------------------------------|
G|-0----2----0----2--0-0-----------------------------------------------------|
D|-0----3----0----2--0-0-----------------------------------------------------|
A|-2----3----2----0--2-2-----------------------------------------------------|
E|-3----1----3----x--x-x-----------------------------------------------------|


Outro
       C         Am
e|-0-0-0-----0-0-0---------------------------------|
B|-1-1-1-----1-1-1---------------------------------|
G|-0-0-0-----0-0-2---------------------------------|
D|-0-0-2-----0-0-2---------------------------------|
A|-2-2-3-----2-2-0---------------------------------|
E|-x-x-x-----x-x-x---------------------------------|

God fornøyelse!
Добавлено: 14.10.2013
Другие материалы по этой песне:
  • Аккорды и текст

Страница создана 14.10.2013
http://primanota.ru/misc-unsigned-bands/amnestiet-du-og-jeg-chords.htm
Привет, Гость.
Предлагаем пройти революционный курс по гитаре.
Подарок от PrimaNota.Ru, забирай!